Song name
# A B C D E F G H I J K L M N O P Q R S T U V W X Y Z

Lars Frederiksen And The Bastards - Bastards tab

-------------------------------------------------------------------------------
BASTARDS - Lars Frederiksen and the Bastards
-------------------------------------------------------------------------------
Tabbed by: SRBPunx
Email: steven_bishop295@yahoo.com

Tuning:EADGBe

Work out the number of notes, its not too hard
Intro
e|---------------------------------------------------------------------------|
B|---------------------------------------------------------------------------|
G|---------------------------------------------------------------------------|
D|----7-------5--------------------------------------------------------------|
A|----7-------5--------------------------------------------------------------|
E|----5-------3--------------------------------------------------------------|
Verse
e|---------------------------------------------------------------------------|
B|---------------------------------------------------------------------------|
G|----7------7-----7-----5---------------------------------------------------|
D|----7---5--7--5--7--5--5--5------------------------------------------------|
A|----5---5--5--5--5--5--3--5------------------------------------------------|
E|--------3-----3-----3-----3------------------------------------------------|
Chorus
e|---------------------------------------------------------------------------|
B|---------------------------------------------------------------------------|
G|---------------------------------------------------------------------------|
D|----333333333333--777777777777---------------------------------------------|
A|----333333333333--777777777777---------------------------------------------|
E|----111111111111--555555555555---------------------------------------------|
Fill
e|---------------------------------------------------------------------------|
B|-------6-------------6----------------6------------------------------------|
G|--------7-5---57------7-5---57^85------7-5---57-7^85---7^85----------------|
D|-----------757-----------757-----7--------757-------7------7---------------|
A|---------------------------------------------------------------------------|
E|---------------------------------------------------------------------------|


Song Order

Intro
Verse
Chorus
Verse
Chorus
Fill
Chorus
Fill


Play the Verse Rhythm over the fill if you want to.
Tap to rate this tab
 
# A B C D E F G H I J K L M N O P Q R S T U V W X Y Z