Song name
# A B C D E F G H I J K L M N O P Q R S T U V W X Y Z

Lars Frederiksen And The Bastards - Army Of Zombies tab

ok, one of the greatest bands ever
so here we go. Simple!

listen to it a couple of times to get the rythym  sorted.


INTRO

E--------------|
B--------------|
G--------------|
D--44------22--|X5
A--22--22--00--|
E------00-----|

same for verse


VERSE

E-------------------------------------|
B-------------------------------------|
G-------------------------------------|
D--44-------22--X3--2222--------------| X2
A--22--222--00------0000--2222--------|
E------000----------------0000--------|

CHORUS

its you, its me, its and army of zombies!

E--------------------------|
B--------------------------|
G--------------------------|
D--4444--------2222--------| X4
A--2222--2222--0000--2222--|
E--------0000--------0000--|

INTRO

VERSE

CHORUS

BRIDGE

E---------------------------------|
B---------------------------------|
G---------------------------------|
D------------2--4444--2--44444---|X4
A--444--444--0--2222--0--22222---|
E--222--222-----------------------|

E--------------|
B--------------|
G--------------|
D--4-----2-----|X2
A--2--2--0--2--|
E-----0-----0--|

CHORUS

and thats it
correct me if im wrong
blood-guts-punkrock@hotmail.co.uk
Tap to rate this tab
# A B C D E F G H I J K L M N O P Q R S T U V W X Y Z