Guitaretab - guitar tabs
Song name
# A B C D E F G H I J K L M N O P Q R S T U V W X Y Z

Lars Frederiksen And The Bastards - Streetwise Professor tab

well im not sure if its ok i guess there s sth wrong with chorus, but u can play it 
here and it ll beok

intro/preverse
e|-------------------------------------|
B|-------------------------------------|
G|-------------------------------------|
D|------------------9-11-9-11-7-9-7-9--|
A|--7-9-7-9-7-9-7-9-7-7 -7-7 -5-5-5-5--|
E|--5-5-5-5-5-5-5-5--------------------|

verse
e|-----------------------------------|
B|-----------------------------------|
G|------------------9-9-9-9-7-7-7-7--|
D|--7-7-7-7-7-7-7-7-9-9-9-9-7-7-7-7--|
A|--7-7-7-7-7-7-7-7-7-7-7-7-5-5-5-5--|
E|--5-5-5-5-5-5-5-5------------------|
[ Tab from: http://www.guitaretab.com/l/lars-frederiksen-and-the-bastards/83562.html ]
prechorus
e|-------------------------------|
B|-------------------------------|
G|--------------9-9-9-9-7-7-7-7--|
D|--------------9-9-9-9-7-7-7-7--|
A|--7-7--7-7----7-7-7-7-5-5-5-5--|
E|--5-5--5-5---------------------|

chorus
e|-----------------|----------------|
B|-----------------|----------------|
G|-------9--7------|----------------|
D|--7----9--7---x3-|--7(let ring)---| and then quickly to preverse
A|--7----7--5------|--7-------------|
E|--5--------------|--5-------------|

outro
e|--------------------|
B|--------------------|
G|--------------------|
D|-----------------7--|
A|--7-7--7-7--7-7--7--|
E|--5-5--5-5--5-5--5--|
Related for Streetwise Professor tab
Advertisement will be closed in 10 seconds