Song name
# A B C D E F G H I J K L M N O P Q R S T U V W X Y Z

Lars Frederiksen And The Bastards - Ten Plagues Of Egypt tab

Help us improve GuitareTab! Take a short survey!
LARS FREDERIKSEN AND THE BASTARDS
TEN PLAGUES OF EGYPT!

INTRO/after bridge
e|------------|
B|------8\7---|
G|---9--7\6---|
D|---9--5\4---|
A|---7--------|
E|------------|

VERSE
e|-------------------------------------|
B|---------------------------8\7-------|
G|-------------------9-9-9-9-7\6-8\7---|
D|---7-7-7-7-9-9-9-9-9-9-9-9-5\4-7\6---|
A|---7-7-7-7-9-9-9-9-7-7-7-7-----5\4---|
E|---5-5-5-5-7-7-7-7-------------------|

PRECHORUS
e|---------------------------------------------------------------------|
B|---------------------------------------------------------------------|
G|-----------------------------------7-7-7-7-7-7-7-7-------------------|
D|---9-9-9-9-9-9-9-9-9-9-9-9-9-9-9-9-7-7-7-7-7-7-7-7-5-5-5-5-5-5-5-5---|
A|---9-9-9-9-9-9-9-9-9-9-9-9-9-9-9-9-5-5-5-5-5-5-5-5-5-5-5-5-5-5-5-5---|
E|---7-7-7-7-7-7-7-7-7-7-7-7-7-7-7-7-----------------3-3-3-3-3-3-3-3---|
CHORUS
e|----------------------------|
B|----------------------------|
G|---7-7-7-7-7-7-7-7-7--------|
D|---7-7-7-7-7-7-7-7-7--5-5---|
A|---5-5-5-5-5-5-5-5-5--5-5---|
E|----------------------3-3---|

BRIDGE
e|--------------------------------------------------------|
B|-----------------------------8-8-8-8------7-7-7-7-------|
G|---------------9-9-9-9-------7-7-7-7------6-6-6-6-------|
D|--9-9-9-9------9-9-9-9-------5-5-5-5-(x2)-4-4-4-4-(x2)--|
A|--9-9-9-9------7-7-7-7-(x2)-----------------------------|
E|--7-7-7-7-(x2)------------------------------------------|
Related for Ten Plagues Of Egypt tab