Song name
# A B C D E F G H I J K L M N O P Q R S T U V W X Y Z

Lars Frederiksen And The Bastards - Leavin Here tab

LEAVIN HERE great cover of motorhead! solos missing

... = let ring

e|---------------|----------|
B|---------------|----------|
G|-----5-7-5-----|----------|
D|---7-5-7-5-7---|---7...---|
A|---7-3-5-3-7---|---7...---|
E|---5-------5---|---5...---|

e|---------------------------------------|
B|---------------------------------------|
G|-------7-7-----7-7-----7-7-7-----------|
D|---7-7-7-7-7-7-7-7-7-7-7-7-7-5-5-5-7---|
A|---7-7-5-5-7-7-5-5-7-7-5-5-5-5-5-5-7---|
E|---5-5-----5-5-----5-5-------3-3-3-5---|

bridge
e|---------------------|
B|---------------------|
G|-------7-7-7---------|
D|---7-7-7-7-7-5-5-5---|
A|---7-7-5-5-5-5-5-5---|
E|---5-5-------3-3-3---|

bridge2
e|-------------------------------------|
B|-------------------------------------|
G|-------------------------------------|
D|---7-7-7-7-7-7-7-7-7-7-7-7-7-7-7-7---|
A|---7-7-7-7-7-7-7-7-7-7-7-7-7-7-7-7---|
E|---5-5-5-5-5-5-5-5-5-5-5-5-5-5-5-5---|


bass solo (its fun :D )
G|-------------------------|---------------------------|
D|-------------------------|---------------------------|
A|-----3-5-7-5-3----3-5-3--|---------------------------|
E|---5------------5--------|---5-5-5-5-5-4-2-1-3-3-1---|

endin is intro and then A bass solo A bass solo 2nd part and A A A quicly
A means A5 (577xxx)
Tap to rate this tab
 
# A B C D E F G H I J K L M N O P Q R S T U V W X Y Z