Song name
# A B C D E F G H I J K L M N O P Q R S T U V W X Y Z

Lars Frederiksen And The Bastards - Skunx tab

Intro/Verse
e|-------------------------------------------------|
B|-------------------------------------------------|
G|-------------------------------------------------|
D|--7-7-7-7---------2-2-2-2---------7-7-7-7--------|
A|--7-7-7-7---------2-2-2-2---------7-7-7-7--------|
E|--5-5-5-5--(x4)---0-0-0-0--(x8)---5-5-5-5--(x4)--|

Intropart2/Chorus
e|------------------------------------|
B|------------------------------------|
G|--7-7-7-7---------------------------|
D|--7-7-7-7-7-7-7-7-2-2-2-2-2-2-2-2---|
A|--5-5-5-5-7-7-7-7-2-2-2-2-2-2-2-2---|
E|----------5-5-5-5-0-0-0-0-0-0-0-0---|

PALM MUTED ALL TIME.
Tap to rate this tab
# A B C D E F G H I J K L M N O P Q R S T U V W X Y Z