Song name
# A B C D E F G H I J K L M N O P Q R S T U V W X Y Z

Lars Winnerback - Hjarter Dams Sista Sang tab

Help us improve GuitareTab! Take a short survey!
Hjrter Dams sista sng
Lars Winnerbck


Spelas med gitarren nedstmd ett helt steg. Live spelar Winnerbck den med vanlig 
allts i tonarten D.


   C       C/E      F       F/A      Gsus4   Gsus4/D  C       C/B
d||----------------|----------------|----------0-----|----------------|
A||------3---3-----|------3-------3-|------3-------3-|------3-------3-|
F||----2---------2-|----4-------4---|----2-------2---|----2-------2---|
C||0-----------0---|----------------|--------2-------|0---------------|
G||----------------|--------0h2-----|0---------------|--------0h4-----|
D||--------2-------|2h3-------------|----------------|----------------|

   F       F/A      G       G/D      C       C/B      C
d||----------------|----------0-----|----------------|----------------|
A||------3-------3-|------2-------2-|------3-------3-|------3---------|
F||----4-------4---|----2-------2---|----2-------2---|----2-----------|
C||----------------|--------2-------|0---------------|0-------0-------|
G||--------0h2-----|0---------------|--------0h4-----|----------------|
D||3---------------|----------------|----------------|------------5\--|

   F       F/A      G                E           (F)  F       F/A
d||----------------|----------0-----|----------2-----|----------------|
A||------3-------3-|------2-------2-|------2-----3---|------3-------3-|
F||----4-------4---|----2-------2---|----3---------4-|----4-------4---|
C||----------------|----------------|4-------4-------|----------------|
G||--------0h2-----|0-------0-------|----------------|--------0h2-----|
D||3---------------|----------------|----------------|3---------------|

   G                       Am                                G
d||-----------------------|----------------|----------------|----------0-----|----------0-----|
A||--2---------2-2h5p2----|----------------|----3-----------|------2-------2-|------2-------2-|
F||--------2----------2---|----4-------4---|----4-------4---|----2-------2---|----2-------2---|
C||----0h2----------------|----4---------4-|--------------4-|----------------|----------------|
G||0---------0------------|2---------------|2---------------|0-------0-------|0-------0-------|
D||-----------------------|----------------|----------------|----------------|----------------|
             *

* Byt grepp frn ett traditionellt A till att lgga pekfingret ver andra bandet frn D-strngen.


Texten:

Dr elljusspren ledde hem till middagstid
dr allting var modernt runt sjuttisju
dr lghusen vilade och skogarna tog vid
dr bodde jag, dr bodde du
dr bodde jag & du

Inga jordskalv dr vi bodde, ingen frs och ingen svalt
men det skvlde nr du rrde vid mig
du var sjutton jag var sexton & jag skolkade frn allt
jag ville bara va med dig
jag ville bara va med dig

Nu fr jag hra att du lever d & d ifrn en vn
och det verkar som att allting r okej
och jag undrar om du nn gng vill tillbaks dit igen
du kanske undrar ver mig
du kanske undrar ver mig

Ja dr lghusen slutade & skogarna tog vid
dr allt var tyst och stilla som p kort
dr ntterna viskade om ett sporrande liv
och nr ingenting var gjort
d nr ingenting var gjort

Ja det r ltt att tnka bakt nr frvirringen tar fart
och nr jag knner s tnker jag p dig
allt r s frgngligt allting kan brisera snart
men du r ofrstrd fr mig
du r ofrstrd fr mig

Men tiden har sin rtt att frndras dr den gr
och den r hos dig nu, och hos dig och din vn
jag ska aldrig mera lgga mig med huvudet mot ditt hr
aldrig lska dig igen
aldrig lska dig igen

Men vid vgen lngs bcken som sakta leder hem
dr r himlen lite nrmre fr mig
dr har tiden gjort en hllplats fr oss & allt som hnt
dit kan jag g & sakna dig

Men nya dagar vntar med nya tidsfrdriv
och allting liksom krver mera nu
s ta dina minnen och frsvinn ur mitt liv
lskade lskade du
lskade lskade du


Uttagen av Niklas Lehto (the_minstrel@home.se)
http://www.niklaslehto.com
Related for Hjarter Dams Sista Sang tab