Song name
# A B C D E F G H I J K L M N O P Q R S T U V W X Y Z

Lars Winnerback - Under Manen tab


 1                               Capo 2:nd fret 

F#| -2-----2---0-----2---------2----------------------------------------|
C#| ---------------------3---------3-----3---3-----3---0----3----5------|
A | ----2---------2---------2---------0---------2---------------------7-|
E | -0---------------------------------------0--------------------------|
B | -----------0---------2-----------------------------2----------------|
F#| -------------------------------0------------------------3----5------|


2
            
F#| --------------------------------------------------------------------|
C#| --------------------------------------------------------------------|
A | ---9----11----9----7------------------------------------------------|
E | --------------------------------------------------------------------|
B | --------------------------------------------------------------------|
F#| --------------------------------------------------------------------|
Tap to rate this tab
# A B C D E F G H I J K L M N O P Q R S T U V W X Y Z