Song name
# A B C D E F G H I J K L M N O P Q R S T U V W X Y Z

Lars Winnerback - En Tatort Pa En Slatt tab

-------------------------------------------------------------------------------
                             En tätort på en slätt (intro) - Lars Winnerbäck
-------------------------------------------------------------------------------

I hope this is close to the original. The picking is some Travis picking variant. Have fun!

Tabbed by: Beachmountain
E-mail: beachmountain@hotmail.com

Tuning: Standard
Tempo = 100

Title: En tätort på en slätt (intro)
Artist: Lars Winnerbäck
Tempo = 100
Steel Guitar


E |-----------------0-----------------------1----------|
B |-----------1-----------1-----------1----------------|
G |--------2-----------2-----------2-----------2-------|
D |--2-----------2-----------0h-3--------3-------------|
A |----------------------------------------------------|
E |----------------------------------------------------|


--0--------------0----------------------------------|
-----------1-----------1-----------1-----------1----|
--------0-----------0-----------0-----------0-------|
--------------2-----------------------0h-2----------|
--3-----------------------3-------------------------|
----------------------------------------------------|


-----------------1--------5--------3-----1----------|
-----------1----------------------------------------|
--------2-----------2-------------------------------|
--0h-3--------3-----------3--------2-----0----------|
----------------------------------------------------|
----------------------------------------------------|


--0--------------0----------------------------------|
-----------1-----------1-----------1-----------1----|
--------0-----------0-----------0-----------0-------|
--------------2-----------------------0h-2----------|
--3-----------------------3-------------------------|
----------------------------------------------------|


-----------------0--------1h-0-----------0----------|
-----------3-----------------------3--------0h-1----|
--------0-----------0-----------0-------------------|
----------------------------------------------------|
----------------------------------------------------|
--3-----------3-----------3-----------3-------------|


-----------------0----------------------------------|
--------0h-1-----------1-----------1-----------1----|
--------------------2-----------2-----------2-------|
--------------------------------------0h-2----------|
--0-----------0-----------0-------------------------|
----------------------------------------------------|


-----------------0--------0h-1h-0--------0----------|
-----------0-----------------------3-----------3----|
--------0-----------0-----------------------0-------|
----------------------------------------------------|
----------------------------------------------------|
--0-----------0-----------0-----------0-------------|


-----------------1-----------------------1----------||
-----------1-----------1-----------1-----------1----||
--------2-----------2-----------2-----------2-------||
--0h-3--------3-----------3-----------3-------------||
----------------------------------------------------||
----------------------------------------------------||


************************************

| /   slide up
| \   slide down
| h   hammer-on
| p   pull-off
| ~   vibrato
| +   harmonic
| x   Mute note
| b   Bend
| pb  Pre-bend
| br  Bend release
| pbr Pre-bend release
| brb Bend release bend

************************************
Tap to rate this tab
 
# A B C D E F G H I J K L M N O P Q R S T U V W X Y Z