Song name
# A B C D E F G H I J K L M N O P Q R S T U V W X Y Z

Lars Winnerback - Hugger I Sten tab

Hugger i sten - Lars Winnerbäck
Analyserad, tolkad och nedtecknad av M Lakestone, Växjö augusti 2013


Vers.

Jag dricker ...

 G                       Am                   C                  D/A 
e:|-----------------------|-----------0-------|-------------------|-----------2-------|
B:|-------3-3---3-3---1-0-|-0h1---------1---0-|-1-----1-1---------|---------------3---|
G:|-----0-0-0---0-0-------|-----2---2-----2---|---0---0-0---0-0---|-0h2---2-----2---0-|
D:|---0-------0-----0-----|-------2-----------|-----2-----2-----2-|-----0---0---------|
A:|-----------------------|-0-----------------|-3-----3-3---3-3---|-0-----------------| 
E:|-3-----3-3---3-3-------|-------------------|-------------------|-------------------|

   glögg med balkongdörren öppen inatt, jag är så trött på alla mail och koder     Jag vill

 G                       Am                   C                  
e:|-----------------------|-----------0-------|-------------------|
B:|-------3-3---3-3---1-0-|-0h1---------2---0-|-1-----1-1---------|
G:|-----0-0-0---0-0-------|-----2---2-----1---|---0---0-0---0-0---|
D:|---0-------0-----0-----|-------2-----------|-----2-----2-----2-|
A:|-----------------------|-0-----------------|-3-----3-3---3-3---|
E:|-3-----3-3---3-3-------|-------------------|-------------------|

   ha dig här på riktigt inatt och suga liv ur din halspulså...                      

 D/A
e:|-----------2--------------2-2---2---|
B:|---------------3--------3-----------|
G:|-0h2---2-----2---2----2-------2---2-|
D:|-----0---0----------0-----0-0---0---|
A:|-0----------------------------------|
E:|------------------------------------|

 ...der                      Jag får en doft av

  C                     G                Am                  Em
e:|-3-----0-0---0---0---|-----------------|-------------------|-----------0-------|
B:|---1-----------------|-3-----------0---|-0h1-----1-1---1---|-0-----------0---0-|
G:|-----0-----0---0---0-|---0---0-0-----0-|-----2-------------|-----0---0-----0---|
D:|---------------------|-----0-----0-----|-------2-----2---2-|---2---2-----------|
A:|-3-----3-3---3---3---|-----------------|-0-------0-0---0---|-------------------|
E:|---------------------|-3-----3-3-------|-------------------|-0---0-------------|

   sommarens sista dagar när vinden blåser in från England

  C                 
e:|-------0-------0-------0-------|
B:|-----1---1---1---1---1---1---0-|
G:|---0-------0-------0-------0---|   
D:|-------------------------------|
A:|-3-----------------------------|
E:|-------------------------------|


Brygga.

 B7                Em                Am                  
e:|-------------2---|-0---------------|---------------------------------------|
B:|-------0-0-------|---0---0-0-------|-0h1-----1-1-------------1-1---0-------|
G:|-----2---------2-|-----0-------0---|-----2-------2---2-----2-2-2-------0---|
D:|---1-------1-----|-----------2---2-|-------2-------2-----2-------2---2---2-|
A:|-2-----2-2-------|-----------------|-0-------0-0-------0-----0-0-----------|
E:|-----------------|-0-----0-0-------|---------------------------------------|

Jag har väl knappast lärt mig nåt sen sist nej inte jag men dina ord ligger och 
gnager här dag efter

 D/A                                                             
e:|-----------2-------0h2-------2-------2-------|  
B:|---------------3-------3---3---3---3---3---0-|
G:|-0h2---2-----2---2-------2-------2-------2---|
D:|-----0---0-----------------------------------|
A:|-0-------------------------------------------|
E:|---------------------------------------------|

   dag


Refräng.

 G                   Em                   C                  
e:|-------------------|-------------------|-------------------|
B:|---------0-0-------|-----------0-------|---------1-1---1---|
G:|-------0-----2-0---|---------------0---|-------0-0-0-------|
D:|-----0-----------0-|-0h2---2-----2---0-|-----2-------2---2-|
A:|-------------------|-----2---2---------|-0h3-----3-3---3---|
E:|-0h3-----3-3-3-3---|-0-----------------|-------------------|

          Jag hugger i sten                men jag tror att jag 

 Em        D/A        G
e:|---------|---------|-----------------|
B:|-0---0---|---------|---------0-------|
G:|---------|-2-------|-0---0-------0---|
D:|---2---2-|---0-4---|---0-------0---0-|
A:|---------|-0-----0-|-----------------|
E:|-0---0---|---------|-3-----3---------|

  sakta börjar se en kontur

 G                   Em                   C 
e:|-------------------|-----------0-------|-------------------|
B:|---------0-0-------|---------------0---|---------1-1---1---|
G:|-------0-----2-0---|-------------0---0-|-------0-0-0-------|
D:|-----0-----------0-|-0h2---2-----------|-----2-------2---2-|
A:|-------------------|-----2---2---------|-0h3-----3-3---3---|
E:|-0h3-----3-3-3-3---|-0-----------------|-------------------|

          Några armar och ben                jag jobbar mig 

 Em        D/A        G
e:|---------|---------|---------------------------0-------|
B:|-0---0---|---------|---------0---------------------0---|
G:|---------|-2-------|-0---0-------0---------0-----0---0-|
D:|---2---2-|---0-4---|---0-------0---0-----0-------------|
A:|---------|-0-----0-|-----------------02h---------------|
E:|-0---0---|---------|-3-----3-----------------3---------|

  inåt så jag ser en figur



Vers 1.
Jag dricker glögg med balkongdörren öppen inatt, jag är så trött på alla mail och koder
Jag vill ha dig här på riktigt inatt och suga liv ur din halspulsåder
Jag får en doft av sommarens sista dagar
när vinden blåser in från England

Vers 2.
Som du sa, det verkar svårt att bli riktigt nöjd, det är så lätt att fantisera
Mina tankar och minnen står mig upp i halsen, men mycket vill ha mera
Jag har kvar av sommaren om du behagar
Om du behagar komma hem från England

Brygga.
Jag har väl knappast lärt mig nåt sen sist, nej inte jag
men dina ord ligger och gnager här dag efter dag

Refräng.
Jag hugger i sten, men jag tror att jag sakta börjar se en kontur
Några armar och ben, jag jobbar mig inåt så jag ser en figur

Vers 3.
Inatt kom isen över sjön och snön föll försiktigt över Skandinavien
Nordsjön är väl stilla och kall så här års, innan våren sätter av igen
Det är nånting stilla mellan dig och våren
Det är nåt kallt mellan mig och England

Vers 4.
I morgon sveper en dimma in som en julrush över staden
Det vimmlar av stressade människor i stan men det är tomt på strandpromenaden
Jag tänkte att du kunde stå där i solen
men berätta ingenting om England
    
Brygga.
Jag har väl knappast lärt mig nåt sen sist, inte jag
Men jag tänker och tänker och vet att du sa

Refräng.
Jag hugger i sten, men jag tror att jag sakta börjar se en kontur
Några armar och ben, jag jobbar mig inåt så jag ser en figur

Vers 5.
Jag dricker glögg med balkongdörren öppen inatt och låter vinden blåsa in ifrån väster
som en virvlande storm, som en dansande vår, som en galen orkester
Jag dricker ur mitt glas och alla dörrar är öppna
Nu är det dimma över mig och över England                     Och du sa

Refräng.
Jag hugger i sten, men jag tror att jag sakta börjar se en kontur
Några armar och ben, jag jobbar mig inåt så jag ser en figur
Tap to rate this tab
# A B C D E F G H I J K L M N O P Q R S T U V W X Y Z