Song name
# A B C D E F G H I J K L M N O P Q R S T U V W X Y Z

Lars Winnerback - Ingen Soldat tab

Ingen soldat - Lars Winnerback.
Analyzed, construed and written down by M Lakestone, Växjö October 2013

G-dur (original i A-dur)

Main strumming pattern

  |-1-2-3-4-1-2-3-4-1-2-3-4-1-2-3-4-|     
    D       D U   U D   D U   U D U

Chords

Gadd9       Asus2       D6          Am7
|-|-|3|-|-| |-|-|-|-|-| |-|2|-|-|-| |-|-|-|-|-|     
|-|-|-|-|-| |-|-|-|-|-| |-|-|-|-|-| |1|-|-|-|-|    
|-|2|-|-|-| |-|2|-|-|-| |-|2|-|-|-| |-|-|-|-|-| 
|-|-|-|-|-| |-|2|-|-|-| |-|-|-|-|-| |-|2|-|-|-|     
|x|x|x|x|x| |-|-|-|-|-| |x|x|x|x|x| |-|-|-|-|-|     
|-|-|3|-|-| |x|x|x|x|x| |x|x|x|x|x| |x|x|x|x|x|

Gsus4       D9          C*          D5          D***
|-|-|3|-|-| |-|-|-|-|-| |-|-|3|-|-| |-|-|-|-|-| |-|2|-|-|-|     
|1|-|-|-|-| |-|-|3|-|-| |1|-|-|-|-| |-|-|3|-|-| |-|-|3|-|-|    
|-|-|-|-|-| |-|2|-|-|-| |-|-|-|-|-| |-|2|-|-|-| |-|-|-|-|-| 
|-|-|-|-|-| |-|-|-|-|-| |-|2|-|-|-| |-|-|-|-|-| |-|-|-|-|-|     
|x|x|x|x|x| |-|-|3|-|-| |-|-|3|-|-| |x|x|x|x|x| |x|x|x|x|x|     
|-|-|3|-|-| |x|x|x|x|x| |x|x|x|x|x| |x|x|x|x|x| |x|x|x|x|x|

Intro/Stick

1. 
             Am (strum)                   D7/A (strum)          
e:|-----------|-----------------|-----------|-----------------|     
B:|-----------|-1---------------|-----------|-1---------------|    
G:|-------0---|-2---------------|-------0---|-2---------------| 
D:|-0-0h2---2-|-2---------------|-0-0h2---2-|-0---------------|     
A:|-----------|-0---------------|-----------|-0---------------|     
E:|-----------|-----------------|-----------|-----------------|    
                D   D U   U D                 D   D U   U D

                G (strum)      
e:|-------------|-----------------|     
B:|-------------|-0---------------|     
G:|-2-2p0-1-----|-0---------------| 
D:|---------4-2-|-0---------------|  
A:|-------------|-2---------------|     
E:|-------------|-3---------------|     
                  D   D U   U D

2.
             Am (strum)                   D7/A (strum)          
e:|-----------|-----------------|-----------|-----------------|     
B:|-----------|-1---------------|-----------|-1---------------|    
G:|-------0---|-2---------------|-------0---|-2---------------| 
D:|-0-0h2---2-|-2---------------|-0-0h2---2-|-0---------------|     
A:|-----------|-0---------------|-----------|-0---------------|     
E:|-----------|-----------------|-----------|-----------------|    
                D   D U   U D                 D   D U   U D

                G (strum)      
e:|-------------|---------------------------------|     
B:|-1-1p0-------|-0-------------------------------|     
G:|-------2-0---|-0-------------------------------| 
D:|-------------|-0-------------------------------|  
A:|-------------|-2-------------------------------|     
E:|-------------|-3-------------------------------| 
                  D       D U   U D   D U   U D U
    
Verse 1.
G      Gadd9  G              Am       Asus2  Am
Himlen faller ner det svider till där kniven skar, 
              D7    D6   D7          D6  G                   Hm*
jag har varit vaken hela natten känt om hjärtat sitter kvar, 
Am      Asus2   Am7    G
känt om hjärtat sitter kvar.                                                      
     
Hm*                                           
e:|---2-------|     
B:|-3---3---3-|     
G:|-4-----4---| 
D:|-4---------|  
A:|-2---------|     
E:|-----------| 
                    
Verse 2.
Jag har litat på imorgon som en troende tror,
jag skulle gjort så annorlunda om jag gick i andra skor,
om jag gick i andra skor

Chorus.
       Gsus4  Am                        Asus2   D7
Jag är ingen soldat, jag har inga vapen att ta till,
                D9    G                        C
inga korståg jag vill gå, ställ mig inte i ett led,
                  C*        D                D5    G
du får mig aldrig att stå still, jag fungerar inte då,
       Gsus4  Am     **    D                  D*** G
jag är ingen soldat,              jag tänker inte så

**                                           
e:|-----------|     
B:|-1-1p0-----|     
G:|-------2-0-| 
D:|-----------|  
A:|-----------|     
E:|-----------| 

Stick 1.

Verse 3.
Jag har härjat krig i huset, jag har härjat krig i mig, 
mina ögonlock är tunga nu, snart drömmer jag om dig, 
snart drömmer jag om dig 

Verse 4.
Jag har aldrig stått vid fronten, eller försvarat det jag har, 
men i skärvorna och flagorna, ligger ändå allting kvar, 
ligger allting ändå kvar

Chorus.

Stick 1 and 2.

Verse 5.
I rispan från min vrede, ska jag sätta jord och så,
i skuggan av din stolthet, ska jag resa mig och gå

Chorus (tuning increase 5 semitones)
              Dm                               G
Jag är ingen soldat, jag har inga vapen att ta till, 
                      C                        F
inga korståg jag vill gå, ställ mig inte i ett led,
                          G                        C
du får mig aldrig att stå still, jag fungerar inte då, 
               Dm                              G
Jag är ingen soldat, jag har inga vapen att ta till, 
                      C                        F
inga korståg jag vill gå, ställ mig inte i ett led,
                          G                        C
du får mig aldrig att stå still, jag fungerar inte då, 
                Am                                 C
jag är ingen soldat, ingen soldat, jag tänker inte så.

Outro.
            Dm              G               C
la la la la la, la la la la la, la la la la la   x4
Tap to rate this tab
# A B C D E F G H I J K L M N O P Q R S T U V W X Y Z