Song name
# A B C D E F G H I J K L M N O P Q R S T U V W X Y Z

Lars Winnerback - Over Gransen tab

This is the live version of Lasse Winnerbäcks "över gränsen" from the Live i Linköping concert. Enjoy.
It can also be played with a capo on fret 2, but this is the original.
Tabbed by Pontus Lindholm.

e|-------7-8-7-5----------------------------0-----------0------------|
B|------5--------8-6-5--------------------0---0-------0---0----------|
G|-----5---------------7-5-4h5----------5-----------5-------5--------|
D|----7------------------------6-7----7-----------7------------------|
A|---0------------------------------0-----------0--------------------|
E|-------------------------------------------------------------------|


e|------------0-------------0h1p0-----------------0----------|
B|----------0---0---------3-------3-------------0---0--------|
G|--------9-------9-----2-----------2---------5-------5------|
D|------6-------------0---------------------7----------------|
A|----------------------------------------0------------------|
E|--0--------------------------------------------------------|


VERSE
 Am         G	       Am
e|----------|-----0---|--------------------|
B|-----1p0--|------0--|-----1p0-------1p0--|
G|---2----2-|---0-----|---2----2----2----2-|
D|--2-------|--0------|--2---------2-------|
A|0---------|---------|0---------0---------|
E|----0-----|3---3----|----0---------0-----|


CHOURUS 1
          Am              C             G             Am         F
e|---------------------------------------------------------------1----|
B|---------1--------------1-------------0-------------1---------1--1--|
G|--------2--2----------0---0----------0--0----------2--2------2----1-|
D|------2-----2-------2-------2-------0----0--------2----2----3-------|
A|----0-------------3-----------3-----------------0-------------------|
E|-----------------------------------3--------------------------------|

        E7
e|-------------------------------|
B|---------0------------0--------|
G|-------2---2--------2---2------|
D|-----0-------0----0-------0----|
A|-------------------------------|
E|---0------------0--------------|


CHOURUS 2

       F              C             G           Am              F
e|------1--------------------------------------------------------1----|
B|-----1---1--------------1------------0------------1----------1--1---|
G|---2-------2----------0---0---------0--0--------2---2------2------0-|
D|-3------------------2-------2------0----0-----2------2---3----------|
A|------------------3--------------------------0----------------------|
E|---------------------------------3----------------------------------|


        E7
e|-------------------------------|
B|---------0------------0--------|
G|-------2---2--------2---2------|
D|-----0-------0----0-------0----|
A|-------------------------------|
E|---0------------0--------------|


VERSE

Blev så trött på den heta sommarn.
trött på bilderna i stan'
trött på Olssons skor och Kvarnen
trött om natten, trött på dan'

CHOURUS 1

Trött på all valproganda, lika billig som reklam
ja, vi vill ha ett bättre sverige. Åh fan!

VERSE

Tagit mig ner till Köpenhamn
Hyr ett rum av en vänlig dam
Vandrar gatorna i timmar här
Äter frukost på altan'

CHOURUS 2

Jag har varit tyst i tio dagar eller mer
jag tror jag slipar mina vapen, när ingen ser

VERSE

Fläktar den första svala vinden
i hennes vilda höstträdgård
Hjärter Dam, nu i september
börjar en annan typ av vår

CHOURUS 2

Du skulle älska att ströva i parken här intill.
Där över gränsen får man vara när man vill.

VERSE

Jag blev så trött på den heta sommarn'
trött på att aldrig stå pall
trött på clownerna i TV
trött på inget, trött på allt

CHORUS 2

Hjärter Dam, här får man krafterna igen
snart kan jag ta mig ut på isen, men inte än

VERSE

Hjärter Dam, om skräpet hinner ikapp dig
Och drömmen flyr och vardagen gror
Om du letar efter tråden
Eller bara saknar en bror

CHOURUS 1

Om du har halsen full med månader av slit
Ta din packning över gränsen och kom hit
Tap to rate this tab
# A B C D E F G H I J K L M N O P Q R S T U V W X Y Z