Song name
# A B C D E F G H I J K L M N O P Q R S T U V W X Y Z

Lars Winnerback - Tvivel tab

Help us improve GuitareTab! Take a short survey!
Highlighted       Show chord diagrams
**********************
****Lars Winnerbck***
********Tvivel********
**Med Solen i gonen**
**********************

Standard tuning
NO CAPO


[Introriff]
e|---/10-9-7--------------------------------------------------------------------|
B|-----------7~---8p7------------------------------------6-7~-------------------|
G|--------------------9-7s6h7~-----9-7-6-------6-7~----9------------------------|
D|-------------------------------9-------9-7-9----------------------------------|
A|------------------------------------------------------------------------------|
E|------------------------------------------------------------------------------|

e|---/10-9-7-------------------------------------------------------12--14--15~--|
B|-----------7~---8p7----------------------------------7-10-11~----15--17--18~--|
G|--------------------9-7s6h7~-----9-7-6-------6-7~-----------------------------|
D|-------------------------------9-------9-7-9----------------------------------|
A|------------------------------------------------------------------------------|
E|------------------------------------------------------------------------------|

[Intro]
Bm    F#7    Bm    E7    A7    D   
F#7 x2

[Verse]
        Bm        F#7          Bm             F#7    
  Bm
Du r fri och tar allting fr givet, du kan skratta t livet
    Em                    F#7
Du lever fr stunden, precis som jag
        Bm         F#7    Bm             F#7       Bm
Det r nudlar och lnade pengar, du har gr efterslngar
     Em                   F#7
men lyckan i grunden, precis som jag

[Bridge]
           A7             D
Vi r som personifierade nittiotal
       A7                     F#7
i ett virrvarr av chanser och val

[Verse]
Ont om rutiner, gott om dliga vanor, gott om kitchiga planer
Jag lever fr kicken, precis som du
Jag blir oinspirerad och ledsen av kraven och stressen
Jag har frihet i blicken, precis som du

[Bridge]
         A7                  D
Hr str livet i farstun, s nra inp
        A7                   D
men det r nt som gnager nd

[Chorus]
            F#7                  Bm
Det kallas tvivel, det dr som str
     E7             A7                   D         F#7
Det kallas fr en klump i magen och ett konstigt humr
         B7                   Em
och jag ser hur du tnker p nt
                    A7
hur du lngtar dig bort
               Bm    F#7
som en fgel i bur
D     F#7        G
En obehaglig distans
            A7         Em
en konstig knsla nnstans
           F#7          Bm
Det knns tomt - eller hur?

[Verse]
Som ett kliande, svidande skavsr r den tomhet som kvarstr
nr du somnar om natten, precis som jag
utan mening p jakt efter ruset, genom dunket och bruset
Du lever fr skratten, precis som jag

[Bridge]
Vi r som flugor i smret p nn annans kalas
Vi proppar i oss och vaknar som as

[Verse]
Hr ligger ngest och prylar i drivor, jag unnar mig skivor
Dom hjlper mot ledan, precis som du
Jag har tid, jag har lediga dagar, dr jag sitter och klagar
och lngtar till fredan, precis som du

[Bridge]
Kan du hra hur det lter i ditt vilsna skratt?
Kan du knna hur det gnager i natt?

[Repeat Chorus]

[Bridge]
Hr str livet i farstun, s nra inp
men det r nt som gnager nd

[Repeat Chorus]
Related for Tvivel tab