Las - Feelin chords

Highlighted       Show chord diagrams
I have tabbed this great song called Feelin by La's. If you feel anything is wrong with 
this tab please email me at Rnorrie2307@live.co.uk and i will change it :)Enjoy!

Tabbed By Ryan Norrie

Chords Used:

G:     (320033)
G5:    (300033)
Em:    (*22000)
Cadd9: (*32033)
F:     (133211)

Introduction: G G5 x8


Verse 1:

G
I woke up with a feeling

                          Em
And found me lying on the floor


I look up at the ceiling

Cadd9
I must be dreaming

G
When I get that feeling

                                G Em Cadd9 F G
Oh my Lord I can't take no more


Verse 2:

G
You can't stop that feeling

                        Em
It just goes on for evermore


What we believe in

Cadd9
Is just a feeling

G
So thank God for that feeling

                               G Em Cadd9 F G
Oh my lord I can't take no more


Solo:

e------------0--0-|---------3--1---------|-0--0--0--0--0--0-|---0--0---0--0-|
B---0-3-1-0--1--3-|---3-1-0------3-0-----|-0--3--1--0--1--3-|---3--0---1--0-|
G-0----------0--0-|-0------------------0-|----------------0-|-0------0----0-|
D-----------------|----------------------|------------------|---------------|
A-----------------|----------------------|------------------|---------------|
E-----------------|----------------------|------------------|---------------|

e------------0--0-|---------3--1---------|----------------------------------|
B---0-3-1-0--1--3-|---3-1-0--0--0-3-0----|----------------------------------|
G-0----------0--0-|-0-----------------0--|----------------------------------|
D-----------------|----------------------|----------------------------------|
A-----------------|----------------------|----------------------------------|
E-----------------|----------------------|----------------------------------|


Verse 3:

G
I get the feeling

                          Em
That I am responding to a call


I am receiving and

Cadd9
I get that meaning

G
So hats off to that feeling

                            G Em Cadd9 F G
I could not ask for anymore

Outro:

G Em Cadd9 F G x2
Tap to rate this tab
 
# A B C D E F G H I J K L M N O P Q R S T U V W X Y Z