Song name
# A B C D E F G H I J K L M N O P Q R S T U V W X Y Z

Las - There She Goes chords

Highlighted       Show chord diagrams
There She Goes by the La's by duff_manchon

I put this together as the other tabs were not complete enough to sing along to.

Intro: x5

       E|-----3-----5-----2-----3-----O-----O-----O----------|
       B|--3-----3-----3-----3-----3-----3-----3-----3------3|
       G|------------------------------------------------O---|
       D|----------------------------------------------------|
       A|----------------------------------------------------|
       E|----------------------------------------------------|

Then intro end:

E--0--3--5---3-0--------0h3-0h3-0h3--------------00-------|
B--------------------3---------------------------3333-33--|
G------------------------------------------------2222-22--|
D------------------------------------------------0000-00--|
A---------------------------------------------------------|
E---------------------------------------------------------|

Interlude

E--0-3-5-----0-3-5---0-3-5-3-0------0h3-0h3-0h3-----------00-|
B----------3----------3---------------3--------------3333-33-|
G----------------------------------------------------2222-22-|
D----------------------------------------------------0000-00-|
A------------------------------------------------------------|
E------------------------------------------------------------|


Intro.
Verse.

G     D   C          D             G         D    C       D
There she goes.                    There she goes again 
G      D          C      D
Racing through my brain

Am         G     C             Am     G    C            D           
And I just can't contain. This feelin that remains.

G     D   C     D
There she blows
G         D     C     D
There she blows again
G       D          C       D
Pulsing through my vein

Am          G      C           Am     G     C            D           
And I just can't contain. This feelin that remains.

Repeat intro 3x then interlude 

Em        C     Em
There she goes, there
         C
she goes again
    D        G     D        Cadd9
She calls my name, pulls my train
D      G          D       C
No-one else could heal my pain

Am         Em      C           Am     G     C            D           
And I just can't contain. This feelin that remains.

G     D   C          D             G         D    C       D
There she goes.                    There she goes again 
G       D       C     D
Chasing down my lane

Am         G     C             Am     G     C       D           
And I just can't contain. This feelin that remains.

(she calls my name (harmony))       
G     D   C          D 
There she goes                        (she calls my name (harmony))       x3 
End on G
Tap to rate this tab
# A B C D E F G H I J K L M N O P Q R S T U V W X Y Z