Song name
# A B C D E F G H I J K L M N O P Q R S T U V W X Y Z

Lasgo - Something tab

Lasgo- Something

Chords:
 D    F#m1 F#m2  B   G
|----------------------|
|----------7-----------|
|-5--------6-----4---6-|
|-5---4----4-----4---7-|
|-3---4----------2---7-|
|-----2--------------5-|

Riff:
|--------------------------------------------------|
|--------------------------------------------------|
|--------------------------------------------------|
|------------4-4-4-4-42-2----------------------2-2-|2x
|5-5-5-5-5424----------4--5-5-5-5-5424----------4-4|
|-------------------------------------2-2-2-2-2----|

I play it like this palm muted.
Riff:
|---------------------------------------------------------------------|
|---------------------------------------------------------------------|
|7-7-7-7-7-6-4-6-11-11-11-11-11-9-6-9-7-7-7-7-7-6-4-6-----------9-6-9-|
|7-7-7-7-7-6-4-6-11-11-11-11-11-9-6-9-7-7-7-7-7-6-4-6-4-4-4-4-4-9-6-9-|
|5-5-5-5-5-4-2-4-9--9--9--9--9--7-4-7-5-5-5-5-5-4-2-4-4-4-4-4-4-7-4-7-|
|-----------------------------------------------------2-2-2-2-2-------|
                                              

 D                      F#m1 
I donīt wanna say Iīm sorry 
D                             F#m1
Cause I know thereīs nothing wrong 
D                                   F#m1
Donīt be afraid thereīs no need to worry 
D                                     F#m2
Cause my feelings for you are still strong 
D                                     F#m2 
Hold me in your arms and never let me go 
D                                     F#m2 
Hold me in your arms cause I need you so 


                   B                        D               
I can see it in your eyes there is something, 
    G                   F#m2
Something you wanna tell me 
             B                  D                    
See it in your eyes there is something, 
          G       F#m2
That you hide from me 
                   B                        D               
Is there a reason why there is something,   
    G                   F#m2
Something you wanna tell me 
                 B                        D                    
I see it in your eyes there is something, 
      G            F#m2
That you hide from me 

-----Break-----

Riff:
|--------------------------------------------------|
|--------------------------------------------------|
|--------------------------------------------------|
|------------4-4-4-4-42-2----------------------2-2-|2x
|5-5-5-5-5424----------4--5-5-5-5-5424----------4-4|
|-------------------------------------2-2-2-2-2----|


 D                      F#m1 
I donīt wanna say Iīm sorry 
D                             F#m1
Cause I know thereīs nothing wrong 
D                                   F#m1 
Donīt be afraid thereīs no need to worry 
D                                     F#m2 
Cause my feelings for you are still strong 
D                              
Hold me in your arms 


BRIDGE: G Hm G Hm Ũ 2 (I also play this in the verses)
|-------------------------------------------------------------|
|--------------- --7--7--7--7--7-------------------7--7--7--7-|
|--7--7--7--7--7--6--6--6--6--6----7--7--7--7--7--6--6--6--6--|
|-7--7--7--7--7--4--4--4--4--4----7--7--7--7--7--4--4--4--4---|
|5--5--5--5--5-------------------5--5--5--5--5----------------|
|-------------------------------------------------------------|

D                                     F#m2 
Hold me in your arms and never let me go 
D                                     F#m2 
Hold me in your arms cause I need you so 

                   B                        D               
I can see it in your eyes there is something, 
    G                   F#m2
Something you wanna tell me 
             B                  D                    
See it in your eyes there is something, 
          G       F#m2
That you hide from me 
                   B                        D               
Is there a reason why there is something,   
    G                   F#m2
Something you wanna tell me 
                 B                        D                    
I see it in your eyes there is something, 
      G            F#m2
That you hide from me 


Paul Hoogland(Netherlands)
Tap to rate this tab
 
# A B C D E F G H I J K L M N O P Q R S T U V W X Y Z