Lasse Lindh - Run To You tab

(/) Slide Up  (\) Slide Down  (h) Hammer On  (p) Pull Off  (b) Bend (r) Release (v) Vibrato

E|-----------------------------------------------------------------------------------------------|
B|-----------------------------------------------------------------------------------------------|
G|--2--0-----7--7--------7--7--6--7--9--6--6--2--0-----7--7--4--6--7--9--9--9--6--2--4--6--7--9--|
D|--------4--------4--5-----------------------------4--------------------------------------------|
A|-----------------------------------------------------------------------------------------------|
E|-----------------------------------------------------------------------------------------------|

E|---------------------------------------------9--10--12--10--12--14--15--14--12h14p12--10--|
B|---------------------15--15----------15--15-----------------------------------------------|
G|--11--12--14p12--11----------11--12-------------------------------------------------------|
D|------------------------------------------------------------------------------------------|
A|------------------------------------------------------------------------------------------|
E|------------------------------------------------------------------------------------------|

E|------------------10--9--10--12--12p10--9--7--5-----3-----2-----------|
B|--12--14--15--15---------------------------------8-----7-----5--3-----|
G|--------------------------------------------------------------------6-|
D|----------------------------------------------------------------------|
A|----------------------------------------------------------------------|
E|----------------------------------------------------------------------|

From the awesome K-Drama "Angel Eyes" ^-^
Tap to rate this tab
 
# A B C D E F G H I J K L M N O P Q R S T U V W X Y Z