Song name
# A B C D E F G H I J K L M N O P Q R S T U V W X Y Z

Last Child - Sadarkan Aku tab

Song          : Sadarkan Aku
Artist        : Last Child
Tabbed by     : yoos (yoosyoes.blogspot.com)


Fig1
e|------------------------------------------------------------------------|
B|------------------------------------------------------------------------|
G|--7--14--11-11-11-11--7--14--11--9-7-9--11--9--7-7-7-7--11--9--7-7-7-7--|
D|------------------------------------------------------------------------|
A|--5--12--9--9--9--9---5--12--9---7-5-7--9---7--5-5-5-5--9---7--5-5-5-5--|
E|------------------------------------------------------------------------|

Fig2
e|----------------------------------------|
B|----------------------------------------|
G|---------------------------(7)-(7)-(7)--|
D|----7-4h5p4---4-------------------------|
A|--5---------7---7---5-4-5---------------|
E|----------------------------------------|
    pm                pm...

Fig3
e|----5----------------|
B|--------8---7--------|
G|--7---7---7---7-4-7--|
D|---------------------|
A|---------------------|
E|---------------------|

Fig4
e|-------------------------------------------------------------------|
B|-------------------------------------------------------------------|
G|--14-14-12-11-12-12--12-12-11-9-11-11--11-11-9-7-9-9--9-9-7-6-7-7--|
D|-------------------------------------------------------------------|
A|--12-12-10-9--10-10--10-10-9--7-9--9---9--9--7-5-7-7--7-7-5-4-5-5--|
E|-------------------------------------------------------------------|


Fig5
e|----------------------------------------|
B|----------------------------------------|
G|---------------------------(7)-(7)-(7)--|
D|----7-4h5p4---4-------------------------|
A|--5---------7---7---5-4-5---------------|
E|----------------------------------------|
    pm                pm...

e|----------------------------------------|
B|----------------------------------------|
G|----------------------------------------|
D|----7-4h5p4---4------------(7)-(7)-(7)--|
A|--5---------7---7---5-4-5---------------|
E|----------------------------------------|
    pm                pm...

e|----------------------------------------|
B|----------------------------------------|
G|---------------------------(7)-(7)-(7)--|
D|----7-4h5p4---4-------------------------|
A|--5---------7---7---5-4-5---------------|
E|----------------------------------------|
    pm                pm...

e|----------------------------------------|
B|----------------------------------------|
G|--------------------------------7-------|
D|----7-4h5p4---4-----------------7-------|
A|--5---------7---7---5-7---5-4---5-------|
E|----------------------------------------|
    pm                pm...


CHORD

Intro

Fig1
D5 G5

D5                    G5
ingatkan aku teman bila ku telah lupa siapa diriku
E5                    A5
ku bukan apa apa tanpa dirimu yang meninggi kan aku dengan bahumu
D5                    G5
sadarkan aku teman bila nanti ku terbius ambisiku
E5                    A5
saat gemelap dunia butakan aku saat aku jauh dari harapanmu

E5      F#5 G5            D5       G5 A5
ingatkan aku bahwa tempat ku memang disini
E5      F#5 G5                        A5           G5 A5
pandanglah sayap ku jika ku terbang tinggi lupakan kalian

Fig1
D5                                 G5
berteriak lah padaku lebih kencang agar ku tau kau disini
D5                                 G5
berteriak lah padaku lebih kencang agar ku tau ku tak sendiri

Fig2

D5                    G5
slamatkan aku teman dari ke anggkuhan yang menghancurkan ku
E5                    A5
dari kejamnya dunia yang menerpakau yang seakan ku jauh dari harapan mu

E5      F#5 G5            D5       G5 A5
ingatkan aku bahwa tempat ku memang disini
E5      F#5 G5                        A5           G5 A5
pandanglah sayap ku jika ku terbang tinggi lupakan kalian

Fig1
D5                                 G5
berteriak lah padaku lebih kencang agar ku tau kau disini
D5                                 G5
berteriak lah padaku lebih kencang agar ku tau ku tak sendiri

Fig4
A5 G5 F#5 E5
F#5 G5
G5 D5
D5 A5

A5 G5 F#5 E5
F#5 G5
G5 A5
G5 A5

A5 G5 F#5

Fig3
D5        G5
berteriak lah
D5        G5
berteriak lah

Fig1
D5                                 G5
berteriak lah padaku lebih kencang sadarkan aku kau disini
D5                                 G5
berteriak lah padaku lebih kencang sadarkan aku ku tak sendiri

Fig5
D5 G5    E5 D5 C#5 D5
Tap to rate this tab
 
# A B C D E F G H I J K L M N O P Q R S T U V W X Y Z