Song name
# A B C D E F G H I J K L M N O P Q R S T U V W X Y Z

Last Days Of April - Im Calm Now tab

-------------------------------------------------------------------------------
			     SONG NAME: I'm Calm Now - Band Name: Last Days Of April
-------------------------------------------------------------------------------
Tabbed by: Jacob Wilksch
Email:

Tuning: Standard

  Intro: Repeat

e|-----------------------------------------------------------------------------|
B|-----------------------------------------------------------------------------|
G|-77777-9-66666666-44444-6666666----------------------------------------------|
D|-----------------------------------------------------------------------------|
A|-55555-7-44444444-22222-4444444----------------------------------------------|
E|-----------------------------------------------------------------------------|


 Verses: Alternate the three chords

e|--3----3----3--------------------------------------------------------------|
B|--3----3----3--------------------------------------------------------------|
G|-------2----2--------------------------------------------------------------|
D|-------2-------------------------------------------------------------------|
A|--2------------------------------------------------------------------------|
E|--3---------2--------------------------------------------------------------|

    Chorus: Repeat (listen for the changes)


e|-----------------------------------------------------------------------------|
B|-----------------------------------------------------------------------------|
G|--7---6---4------------------------------------------------------------------|
D|-------------7---9---6---5---------------------------------------------------|
A|--5---4---2------------------------------------------------------------------|
E|-------------5---7---4---3---------------------------------------------------|


| /  slide up
| \  slide down
| h  hammer-on
| p  pull-off
| ~  vibrato
| +  harmonic
| x  Mute note
Tap to rate this tab
# A B C D E F G H I J K L M N O P Q R S T U V W X Y Z