Last Dinosaurs - Honolulu tab

-------------------------------------------------------------------------------
			     HONOLULU - Last Dinosaurs
-------------------------------------------------------------------------------
Tabbed by:Alex Worthy
Email:azimuth457@gmail.com

Tuning: 1 half step down. Eb-Ab-Db-Gb-Bb-eb.

e|---------------------------------------------------------------------------|
B|---------------------------------------------------------------------------|
G|-----7----9--7------9-----12-10-9-------7---5-5----7---5--5----------------|
D|------7------7-------9------------12-----5----5-----5---5------------------| x2
A|---8---8-----8-8/10---10--------------7---7---7--7---7---7-----------------|
E|---------------------------------------------------------------------------|

e|---0----0----0--0----0---|
B|---1----3----3--3p1--1---| I play this part for the chorus too, 
G|---2----0----0--0----0---| But they play the next part I believe.
D|---3----0----2--2----2---|
A|---x----2----3--3----3---| I mix them both together.
E|---x----3----x--x----x---|

e|-------------------------------------------------xxxxxxxx------------------|
B|-------------------------------------------------88888888------------------|
G|----12121212/1414141414---12121212/1414141414----99999999------------------|
D|----x-x-x-x--x-x-x-x-x----x-x-x-x--x-x-x-x-x-----xxxxxxxx------------------|
A|----10101010/1212121212---10101010/1212121212----77777777------------------|
E|-------------------------------------------------xxxxxxxx------------------|


************************************

| /   slide up
| \   slide down
| h   hammer-on
| p   pull-off
| ~   vibrato
| +   harmonic
| x   Mute note
| b   Bend
| pb  Pre-bend
| br  Bend release
| pbr Pre-bend release
| brb Bend release bend

************************************
Tap to rate this tab
 
# A B C D E F G H I J K L M N O P Q R S T U V W X Y Z