Song name
# A B C D E F G H I J K L M N O P Q R S T U V W X Y Z

Last Dinosaurs - Andy tab

-------------------------------------------------------------------------------
                             ANDY  Last Dinosaurs
-------------------------------------------------------------------------------
Tabbed by: Jono
E-mail: Jling@tatachilla.sa.edu.au

Tuning: standard
Intro
Rhythm (listen to song for strumming patterns)
e|-------------------------------------------------------------------------------|
B|---77777----77777-------10-10-10------10-10-----10-10-10-10-10-----------------|
G|---66666----77777-------9---9--9------12-12-----11-11-11-11-11-----------------|x4
D|---77777----99999-------11-11-11------11-11-----12-12-12-12-12-----------------|
A|-------------------------------------------------------------------------------|
E|-------------------------------------------------------------------------------|

Lead
e|---------------------------|----------------------------------------------------------|
B|---------------------------|----------------------------------------------------------|
G|--16-16-16-16-16-14-14 (x4)|-------------14-14--------14-14-14---------------16-16----|
D|---------------------------|-14-14-14-14--------14-14-----------16-16-16-16-----------|
A|---------------------------|----------------------------------------------------------|
E|---------------------------|----------------------------------------------------------|

e|-------------------------------------------------------------------------------|
B|--------------------------17-------15---------14---------14--------------------|
G|----------16-16-16---14----14-12----12--14------14-14-----14(x2)---------------|
D|--16-16-----------------14------12---------16---------16-----------------------|
A|-------------------------------------------------------------------------------|
E|-------------------------------------------------------------------------------|


Verse
Rhythm
e|---------------------------------------------------------------------------------|
B|----7----7----10---------10------------------------------------------------------|
G|---6----7----9----12---11----(x2)------------------------------------------------|
D|--7----9---11---------12---------------------------------------------------------|
A|---------------------------------------------------------------------------------|
E|---------------------------------------------------------------------------------|


Lead
e|----------------------------------------------------------------------------------|
B|--------7-8-7--------5--7-----7-8-7--10--5--7------------------------10--10-------|
G|------9-------9-7-6--6--7----9------9----6--7--9-11-12-11-9---------12--11--------|
D|---------------------7--7----------------7--7----------------12-11---11--12-------|
A|----------------------------------------------------------------------------------|
E|----------------------------------------------------------------------------------|

Intro x1

Verse x1

Chorus x1 (same as the intro)

Bridge
Rhythm
e|-----------------------------------------------------------------------------|
B|--77777--77777--555--88---77777----------------------------------------------|
G|--66666--77777--666--66---77777(x2)------------------------------------------|
D|--77777--99999--777--77---77777----------------------------------------------|
A|-----------------------------------------------------------------------------|
E|-----------------------------------------------------------------------------|

Lead
e|-----------------------------------------------------------------------------|
B|-17-17-17-17--19-19-19-19--17-17--15-15--14-14-14-14-------------------------|
G|-----------------------------------------14-14-14-14-(x2)--------------------|
D|-14-14-14-14--16-16-16-16--14-14--12-12--12-12-12-12-------------------------|
A|-----------------------------------------------------------------------------|
E|-----------------------------------------------------------------------------|

Solo
e|---------------------------------|----------------------------------------|
B|---------------------------------|----------------------------------------|
G|---------------------------------|-----6-9-11-11-11-11-11-11-11-11-11-----|
D|--7-5-4--4h5p4--4h5p4--4----(x4)-|--4-------------------------------------|
A|--------7------7-------7---7-----|----5-----------------------------------|
E|---------------------------------|----------------------------------------|

Chorus x1

Bridge x1

End :)
Tap to rate this tab
# A B C D E F G H I J K L M N O P Q R S T U V W X Y Z