Song name
# A B C D E F G H I J K L M N O P Q R S T U V W X Y Z

Last Dinosaurs - Zoom tab

         -Last Dinosaurs
          -Zoom (Intro)
           -In A Million Years

Tabbed by SShots11

Standard Tuning  

Timing Not Shown
|-----------------------------------|
|-----------------------------------|
|-------7-5--4-4-5-4----------------|
|---5-7-----------------------------|
|-7---------------------------------|
|-----------------------------------|

|-----------------------------------|
|-----------------------------------|
|-------4--------4------------------|
|---5-7---7--7-7---4----------------|
|-7---------------------------------|
|-----------------------------------|

|-----------------------------------|
|-----------------------------------|
|---------4--------4----------------|
|---4-5-7----4-4-5------------------|
|-5---------------------------------|
|-----------------------------------|

|-----------------------------------|
|-----------------------------------|
|---------4--------4----------------|
|---4-5-7----4-4-5------------------|
|-5---------------------------------|
|-----------------------------------|

Verse (minor bits)

|---------------------------------------|
|---------------------------------------|
|---------------------------------------|
|-------------9----9--------------------|
|-12-10-12-10---10----------------------|
|---------------------------------------|

|---------------------------------------|
|---------------------------------------|
|---------------------------------------|
|-------------9-------------------------|
|-12-10-12-10---------------------------|
|---------------12-14-------------------|
Tap to rate this tab
# A B C D E F G H I J K L M N O P Q R S T U V W X Y Z