Song name
# A B C D E F G H I J K L M N O P Q R S T U V W X Y Z

Last Winter - Vela To Norma tab

-------------------------------------------------------------------------------
			     SONG NAME - Band Name
-------------------------------------------------------------------------------
Tabbed by: Bryan H
Email:

give me some props because no one's done this yet.

Tuning: Drop D

e|---------------------------------------------------|
B|---------------------------------------------------|
G|---------------------------------------------------|
D|-22-55-1010-77--22-55-101010-----------------------|
A|-22-55-1010-77--22-55-101010-----------------------|
E|-22-55-1010-77--22-55-101010-----------------------|

  "So Shut Your Eyes Now.."
e|---------------------------------------------------|
B|---------------------------------------------------|
G|---------------------------------------------------|
D|-22-55-00-33--22-55-101010-------------------------|
A|-22-55-00-33--22-55-101010-------------------------|
E|-22-55-00-33--22-55-101010-------------------------| X 2

Tap to rate this tab
 
# A B C D E F G H I J K L M N O P Q R S T U V W X Y Z