Song name
# A B C D E F G H I J K L M N O P Q R S T U V W X Y Z

Lata Mangeshkar - Ghar Aaya Mera Pardesi Piyas Bujhi Meri Akhiyan Ki tab

This is the easiest indian song that I learned to play while listening to it. It's also 
50years+ old song. [Helpful hint]: Pluck your hands fast to the beat.

  [Main Chorus, Played twice]
e-777--888--10-10-10-12-14-12--141514--12-10-10-12-14-12-----141514-------|
B-------------------------------------------------------------------------|
G-------------------------------------------------------------------------|
D-------------------------------------------------------------------------|
A-------------------------------------------------------------------------|
E-------------------------------------------------------------------------|

e--12-10-121412-10-8-101210-8-12-10-8-101210-8-7--------------------------|
B-------------------------------------------------------------------------|
G-------------------------------------------------------------------------|
D-------------------------------------------------------------------------|
A-------------------------------------------------------------------------|
E-------------------------------------------------------------------------|

777--888--10-10-10-12-14-12--141514--12-10-10-12-14-12-----141514-----------|
B---------------------------------------------------------------------------|
G---------------------------------------------------------------------------|
D---------------------------------------------------------------------------|
A---------------------------------------------------------------------------|
E---------------------------------------------------------------------------|

e--12-10-121412-10-8-101210-8-12-10-8-101210-8-7--------------------------|
B-------------------------------------------------------------------------|
G-------------------------------------------------------------------------|
D-------------------------------------------------------------------------|
A-------------------------------------------------------------------------|
E-------------------------------------------------------------------------|


    [These parts are the singing parts]
e--12-13-15-13-17-15-13-15-13-12------------------------------------------|
B-------------------------------------------------------------------------|
G-------------------------------------------------------------------------|
D-------------------------------------------------------------------------|
A-------------------------------------------------------------------------|
E-------------------------------------------------------------------------|

e--10-10-12-10-14-12-10-12-10-8-12----------------------------------------|
B-------------------------------------------------------------------------|
G-------------------------------------------------------------------------|
D-------------------------------------------------------------------------|
A-------------------------------------------------------------------------|
E-------------------------------------------------------------------------|


e--8-8-10-8-12-10-8-10-8-7------------------------------------------------|
B-------------------------------------------------------------------------|
G-------------------------------------------------------------------------|
D-------------------------------------------------------------------------|
A-------------------------------------------------------------------------|
E-------------------------------------------------------------------------|

Then back to chorus.

Look at this link to hear the song, it is on a higher pitch and this tab is a little bit 
because of my guitar. And there you have it, that's the whole song. http://youtube.com/watch?v=Ilb9XTnn4SA
Tap to rate this tab
 
# A B C D E F G H I J K L M N O P Q R S T U V W X Y Z