Song name
# A B C D E F G H I J K L M N O P Q R S T U V W X Y Z

Latch Key Kid - Coming Home Soon tab

Help us improve GuitareTab! Take a short survey!
Latch Key Kid
Coming Home Soon
From the soundtrack to ROAM- Moab segment

Another great song from these guys. I think it's mostly correct, but I'd certainly 
any corrections.

Key is A, moderate tempo.

Verse Pattern:
   A				E			A
E----------------------|---------------------|----------------------|
B----5--X--------5--X--|-----7--X-------7--X-|----5--X--------5--X--|
G----6--X--------6--X--|-----9--X-------9--X-|----6--X--------6--X--|
D----7--X--------7--X--|-----9--X-------9--X-|----7--X--------7--X--|
A----------------------|--7-----X---(7) 7--X-|----------------------|
E-5-----X(5)-5-----X--|---------------------|-5-----X(5)-5-----X--|

   D
E----------------------|
B----5--X--------5--X--|
G----7--X--------7--X--|
D----7--X--------7--X--|
A--5----X-(5) 5-----X--|
E---------------------|


Chorus Pattern:
   A				D			A
E----------------------|---------------------|----------------------|
B----5--X--------5--X--|-----5--X-------5--X-|----5--X--------5--X--|
G----6--X--------6--X--|-----7--X-------7--X-|----6--X--------6--X--|
D----7--X--------7--X--|-----7--X-------7--X-|----7--X--------7--X--|
A----------------------|--5-----X---(5) 5--X-|----------------------|
E-5-----X(5)-5-----X--|---------------------|-5-----X(5)-5-----X--|

   D
E----------------------|
B----5--X--------5--X--|
G----7--X--------7--X--|
D----7--X--------7--X--|
A--5----X-(5) 5-----X--|
E---------------------|

[Drum intro w/flute- 9 measures, about 20 seconds]

(Verse Pattern)
A				  	 E
Where have all the young men gone?
A				  D
Theyre leaving town one-by-one
A			      E
Johnny come and get your gun
A			    D       A
Father give your on-ly son


(Verse Pattern)
Fearlessly they lay down their lives
Son dont be afraid to die
Youre fighting for the land that you love
Yeah, yeah, fighting for your god up above


When the bullets fall upon you like rain
And the starry night is burst into flame
Remember youre the few, youre the brave
Remember what youre fighting to save

(Chorus Pattern)
I know, youll be coming home soon
The war is over, it was on the evening news
Nobodys winning when its life we have to lose
I know, youll be coming home soon, coming home soon.

(Break, A with slightly reggae-ish rhythm)

(Verse Pattern)
Victory can be bittersweet
Insurrection in the street
It never comes without a price
And never without sac-ri-fice

The suicidal bombs in their cars
wrap em up in stripes and stars
Johnny boy is comin home
For a soldiers bur-i-al

When the bullets fall around you like rain
And the starry night is burst into flame
Remember youre the few, youre the brave
Remember what youre fighting to save

(Chorus Pattern)
I know youll be coming home soon
The war is over, it was on the evening news
Nobodys winning when its life we have to lose
I know, youll be coming home soon, coming home soon.


I know youll be coming home soon.. coming home soon
The war is over, it was on the evening news
Nobodys winning when its life we have to lose
I know, youll be coming home soon, coming home soon.

Coming home soon

(Verse Pattern)

finish with strummed A

_________________________________
Tabbed by Glen
gsw@u.washington.edu
Related for Coming Home Soon tab