Song name
# A B C D E F G H I J K L M N O P Q R S T U V W X Y Z

Latch Key Kid - Good Times tab

E:-----------------------------------------------------------------|
B:-----12----12----12---12----12----12-12-10-----------------------|
G:--12----12----12----12---11----11--------------------------------|
D:-----------------------------------------------------------------|
A:-----------------------------------------------------------------|
E:-----------------------------------------------------------------|

E:-----------------------------------------------------------------|
B:-----------------------------------------------------------------|
G:-----12----12----11-------12-12----12-12-------------------------|
D:--12----12----12----12----------14-------14----------------------|
A:-----------------------------------------------------------------|
E:-----------------------------------------------------------------|
both 2X

then...  4X                                              
E:------------------------------------12h14h15-12h14h15-15---------|
B:-----------------------------------------------------------------|
G:--------12-------12-------12-12----------------------------------|
D:--12h14----12h14----12h14-------14-------------------------------|
A:-----------------------------------------------------------------|
E:-----------------------------------------------------------------|

Tap to rate this tab
# A B C D E F G H I J K L M N O P Q R S T U V W X Y Z