Song name
# A B C D E F G H I J K L M N O P Q R S T U V W X Y Z

Late Arrival - Late Arrival tab

e---8--------------4-4-4-4--4-4-4-3-3-3-3-3-|
b-----8-8-8-8-8-8-8-------------------------|
g-------------------------------------------|
d-------------------------------------------|
a-------------------------------------------|

e----------e---8---4-4-4-4--4-4-4-3-3-3-3-3-|
b-----8-8-8-8-8-8-8-------------------------|
g-------------------------------------------|
d-------------------------------------------|
a-------------------------------------------|
e-------------------------------------------|

e-------1-1-1--2-2-2-2-2-25-4-5-4-6-4-7---|
b-----------------------------------------|
g-----------------------------------------|
d-----------------------------------------|
a-----------------------------------------|
e-----------------------------------------|

e-----7-7-7-7-6-7-6-7-7-7-7----------|
b------------------------------------|
g------------------------------------|
d-------------------2-3-2------------|
a------------------------------------|
e------------------------------------|
Tap to rate this tab
 
# A B C D E F G H I J K L M N O P Q R S T U V W X Y Z