Late Of The Pier - Dose A tab

Late of the Pier - Dose A

Tabbed by Richard
----------------------------------------------------------------------------

   (00:17) Guitar Intro
e:--------------------------|----------------------------|
b:--------------------------|----------------------------|
g:--------------------------|----------------------------|
D:-2---------2-0----------0-|-2---------2-0--------------|
A:---------2------------2---|---------2-------------\2---|
E:----0-3---------0-003-----|----0-3---------0-003-----3-|

e:--------------------------|----------------------------|
b:--------------------------|----------------------------|
g:--------------------------|----------------xxxxxxxx----|
D:-2---------2-0----------0-|-2---------2-0--xxxxxxxx----|
A:---------2------------2---|---------2------22222222----|
E:----0-3---------0-003-----|----0-3---------xxxxxxxx--3-|

Intro is played twice, once on bass and once on guitar. Above is the guitar
part but the bass and guitar parts are basically the same. Guitar
syncopations are also played over the second repitition.

(00:31) Guitar
e:-----------|     |-----------|
b:-----------|     |-----------|
g:-----------|     |-2---------|
D:-2---------|  X4 |-x-2-5-555-|  X2
A:-x-2-5-555-|     |-0-0-3-333-|
E:-0-0-3-333-|     |-----------|

e:-------------------------------------xxxxxx------------------------|
b:-------------------------------------xxxxxx------------------------|
g:-----------------------44444444-0-2--xxxxxx-------------xxxxxxxx---|
D:-2----------2------------------------xxxxxx--2----------xxxxxxxx---|
A:-x-2-5-555--x-2-5-555------------------------x-2-5-555--22222222---|
E:-0-0-3-333--0-0-3-333------------------------0-0-3-333--xxxxxxxx-3-|

  
 - (00:51) Intro on Bass X 1 with Guitar syncopations.

   
   (01:03) Guitar
e:------------|-------------|     |-----------|
b:------------|-------------|     |-----------|
g:-xxxxxxxx---|-------------|     |-2---------|
D:-xxxxxxxx---|-2-------2-0-|  X4 |-x-2-5-555-|  X2
A:-22222222---|-x-2-5-2-----|     |-0-0-3-333-|
E:-xxxxxxxx-3-|-0-0-3-------|     |-----------|
     
e:------------------------|---------------------|-------------------------|
b:------------------------|---------------------|-------------------------|
g:------------------------|---------------------|--------------xxxxxxxx---|
D:-2-------2-0--2---------|-------0---2---0---2-|-2-------2-0--xxxxxxxx---|
A:-x-2-5-2------x-2-5-555-|-0-2-2---2---2---2---|-x-2-5-2------22222222---|
E:-0-0-3--------0-0---333-|---------------------|-0-0-3--------xxxxxxxx-3-|
                          _______________________
 
             Not sure about this part^

   (01:26) Solo/Outro
e:----------------------------5-7-5-7^-5------------------------|
b:------------------------5-8------------8-5-8^-8^-8^-8^-8^-8-5-|
g:--------------------------------------------------------------|
D:----------5-7-7^-7^(r)5---------------------------------------|
A:-/7-7^--7-----------------------------------------------------|
E:--------------------------------------------------------------|

e:--------------------------------------------------------------|
b:---5--5^-5^-5^^^----------------------------------------------|
g:-7---------------7-5------------------------------------------|
D:---------------------7-5-7-5-7^-5-5h7-7^^^^--7-5----------5-7-|
A:-------------------------------------------------7~----/7-----|
E:--------------------------------------------------------------|

e:---------5^-5^-5^-5^-----|
b:-----5-8-------------8-5-|
g:-5-7---------------------|
D:-------------------------|
A:-------------------------|
E:-------------------------|


Lyrics:
Love is a sweet idea
But I like to disappear
If you think it's easy don't try to understand

There's not many things in this world
That a boy must have

Girl you're so cute and kind
Thought I'd got you off my mind
But then I saw you talking to another guy

Gonna find me a corner somewhere
Just curl up and die
Tap to rate this tab
 
# A B C D E F G H I J K L M N O P Q R S T U V W X Y Z