Song name
# A B C D E F G H I J K L M N O P Q R S T U V W X Y Z

Late Of The Pier - Random Firl tab

			     Random Firl - Late of the Pier
-------------------------------------------------------------------------------
Tabbed by: Breno Calazans

I made an acoustic version of this great song. Enjoy!

Guitar
e|----------------------------------------------------|
b|----------------------------------------------------|
g|----------------------------------------------------|
d|------2-----------2-2----------2----------2-2-------|
a|---5-----5-----5-------5----5-----5----5------5-----|
e|3-----------3------------2----------2------------2--|

Keyboard
e|--------------------------------------------------------------|
b|--------------------------------------------------------------|
g|--------------------------------------------------------------|
d|-------------------------------------------0--0--0--0--0-2-0--|
a|----------------------------0--2--2--2--2--------------------2|
e|3--3--3--3--3--3--3-2-3-2-3-----------------------------------|

e|-------------------------------------------------------|
b|-------------------------------------------------------|
g|---------------------------------------------2---2---2-|
d|-------------------------------------------0---0---0---|
a|----------------------------0--2--2--2--2--------------|
e|3--3--3--3--3--3--3-2-3-2-3----------------------------|


Gm                                Bm
Lately, I've been thinking this whole world seems to harm
Gm                                Bm
Now we're better off to underhand things
Gm                                Bm
But maybe, it was only the sun behind the clouds
Gm                                Bm
Making things seem nasty
Tap to rate this tab
 
# A B C D E F G H I J K L M N O P Q R S T U V W X Y Z