Song name
# A B C D E F G H I J K L M N O P Q R S T U V W X Y Z

Late - Petrol Cb tab

-------------------------------------------------------------------------------
                             Petrol CB - Late! (Dave Grohl)
-------------------------------------------------------------------------------
Tabbed by: Hrannar B.

Tuning:EADGBe


Intro:

e|--------------------------------------------------------------------------|
B|--------------------------------------------------------------------------|
G|--------------------------------------------------------------------------|
D|--4--4----4--4------------------------------------------------------------|
A|--4--4----4--4------------------------------------------------------------|
E|--2--2----2--2------------------------------------------------------------|


Verse: (x8)

e|--------------------------------------------------------------------------|
B|--------------------------------------------------------------------------|
G|----------/6--6--6--6--8--6--4--0-----------------------------------------|
D|--4--4--------------------------------------------------------------------|
A|--4--4--------------------------------------------------------------------|
E|--2--2--------------------------------------------------------------------|


Chorus: (x4)

e|--22222222----00000000----------------------------------------------------|
B|--22222222----00000000----------------------------------------------------|
G|--33333333----11111111----------------------------------------------------|
D|--44444444----22222222----------------------------------------------------|
A|--44444444----22222222----------------------------------------------------|
E|--22222222----00000000----------------------------------------------------|


Verse: (x8)


Chorus: (x4)


Bridge: (x4)

e|--33333333----00000000----------------------------------------------------|
B|--33333333----22222222----------------------------------------------------|
G|--44444444----22222222----------------------------------------------------|
D|--55555555----22222222----------------------------------------------------|
A|--55555555----00000000----------------------------------------------------|
E|--33333333----00000000----------------------------------------------------|


Verse: (x8)


Chorus: (x4)


Bridge: (x4)


Outro: (x16)

e|----------------0-------------0-------------------------------------------|
B|-------------0-------0-----0-----0----------------------------------------|
G|----------3-------------3-----------3-------------------------------------|
D|--4--4--------------------------------------------------------------------|
A|--4--4--------------------------------------------------------------------|
E|--2--2--------------------------------------------------------------------|
Tap to rate this tab
# A B C D E F G H I J K L M N O P Q R S T U V W X Y Z