Song name
# A B C D E F G H I J K L M N O P Q R S T U V W X Y Z

Late - Bruce tab

- Just Another Story About Skeeter Thompson


These are all the riffs used in the song.

PM = Palm Mute


     PM--------------------|
eb||-------------------------||
Bb||-------------------------||
Gb||-------------------------||
Db||-------------------------||
Ab||-2-0-0-2-0-0-2-2-0-2-0-0-||
Db||-2-0-0-2-0-0-2-2-0-2-0-0-||

eb||-------------------------||
Bb||-------------------------||
Gb||-------------------------||
Db||-------------------------||
Ab||-------------------------||
Db||-4-3-3-4-3-3-4-4-3-4-3-3-||

eb||-------------------------------------------------||
Bb||-------------------------------------------------||
Gb||-------------------------------------------------||
Db||-------------------------------------------------||
Ab||-------------------------------------------------||
Db||-4-3-3-4-3-3-4-4-3-4-3-3-7-6-6-7-6-6-7-7-6-7-6-6-||

eb||------------------------------------||
Bb||------------------------------------||
Gb||------------------------------------||
Db||-6-6-6-6-6-6-9-6-6-6-6-6-6-9--3-2-1-||
Ab||-6-6-6-6-6-6-9-6-6-6-6-6-6-9--3-2-1-||
Db||-6-6-6-6-6-6-9-6-6-6-6-6-6-9--3-2-1-||

eb||-------------------------||
Bb||-------------------------||
Gb||-------------------------||
Db||-3-2-1-3-2-1-3-2-1-3-2-1-||
Ab||-3-2-1-3-2-1-3-2-1-3-2-1-||
Db||-3-2-1-3-2-1-3-2-1-3-2-1-||

eb||---------------------------||
Bb||---------------------------||
Gb||---------------------------||
Db||-3-2-1-3-2-1-3-2-1-3-2-1-0-||
Ab||-3-2-1-3-2-1-3-2-1-3-2-1-0-||
Db||-3-2-1-3-2-1-3-2-1-3-2-1-0-||

_____________________________________- Bruce

(Drop D tuning)


Main Riff
D F G# F
Tap to rate this tab
 
# A B C D E F G H I J K L M N O P Q R S T U V W X Y Z