Song name
# A B C D E F G H I J K L M N O P Q R S T U V W X Y Z

Late - Throwing Needles tab

Late! - Throwing Needles
(Normal Tuning)


Verse
e||---------------------------------------------------------------||
B||---------------------------------------------------------------||
G||---------------------------------------------------------------||
D||---------------------------------------------------------------||
A||------1-------1-------1-----3-1-----1-------1-------1-----3-1--||
E||--3-3-3-3-3-3-3-3-3-3-3-3-3-3-3-0-0-0-0-0-0-0-0-0-0-0-0-0-0-0--||


Chorus
e||---------------------------------------------------------------||
B||---------------------------------------------------------------||
G||---------------------------------------------------------------||
D||---------------------------------------------------------------||
A||--1-1-1-1-1-1-1-1-1-1-1-1-1-1-1-1-1-1-1-1-1-1-1-1-1-1-1-1-1-1--||
E||--3-3-3-3-3-3-3-3-3-3-3-3-3-3-3-0-0-0-0-0-0-0-0-0-0-0-0-0-0-0--||


Bridge
e||-------------||
B||-------------||
G||-------------||
D||-------------||
A||------5-4-3--||
E||--2-3--------||
Tap to rate this tab
# A B C D E F G H I J K L M N O P Q R S T U V W X Y Z