Guitaretab - guitar tabs
Song name
# A B C D E F G H I J K L M N O P Q R S T U V W X Y Z

Laufer - Govorim U Snu Acoustic tab

-------------------------------------------------------------------------------
                       Govorim u snu(acoustic) - Laufer
-------------------------------------------------------------------------------


Album: EP
Tabbed by: brian_s
Email: branimir.sremec@kc.t-com.hr


Verse                       pre chorus           chorus
e---------------------3---I-------3---3-2-0-2--I----------------------------|
B---------------------0---I---3---3---3-3-3-3--I---3---3--------------------|
G---0-0--0-0----------0---I---0---0---2-2-2-2--I---0---0--------------------|
D---2-2--2-2------0--0---I---2---2------------I---2---0--------------------|
A---2-2--2-2--0-2-----2---I---0---0------------I---3---2--------------------|
E---0-0--0-0----------3---I--------------------I-------3--------------------|


Verse 1:
U gradu smijesnoga lica sami padamo
Svatko na drugom kraju svijeta
Zapetljanih tijela umor skrivamo

[ Tab from: http://www.guitaretab.com/l/laufer/71211.html ]
Verse 2:
Koliko potrosenih prica pune ulice papira
Pokidanih istina
Snovima trosili smo ceste i mada se ne smije
U sebi dugo sutjeli


Pre chorus:
A vjetar nosi na lakim usnama
Miris prve jeseni


Verse 3:
Kroz otrovane noci kad je sjecanje na strazi
Ja ne prolazim
A da ni vagoni puni srebra ni sume zlatnoga praha
Ne mogu jutro podkupiti


Play pre chorus

Play chorus twice

Play verse 2

Play pre chorus

Play chorus 4 times

Play pre chorus without singing


Solo:
e--------------------12-----12-10--------10-7---------------------------------|
B--12-------8--------------------------------------10-8-----------------------|
G-------------------------------------------------------7-7----------------7--|
D----------------------------------------------------------------------7-9----|
A-----------------------------------------------------------------------------|
E-----------------------------------------------------------------------------|

For the rythm of the solo just play verse chords
Related for Govorim U Snu Acoustic tab