Song name
# A B C D E F G H I J K L M N O P Q R S T U V W X Y Z

Laufer - Hej Tata tab

-------------------------------------------------------------------------------
                                Hej tata - Laufer
-------------------------------------------------------------------------------

Album: Pustinje
Tabbed by: brian_s
Email: branimir.sremec@kc.t-com.hr


INTRO/CHORUS:
e--------------------------------------------------------------|
B--------------------------------------------------------------|
G--------------------6-6-6-6----2-2-------------4-4-4--3-2-----|
D---4-4--------------6-6-6-6----2-2-------------4-4-4------2---|
A---4-4------0-2-----4-4-4-4----0-0------0------2-2-2----------|
E---2-2--0-2-------------------------0-2-----------------------|

VERSE & PRE CHORUS:
The same as intro/chorus but without the fills


PLAY INTRO 2x

VERSE 1:
U podrumu je cuvao
Njega djecaka
Batinom ga ljubio,
A otrovom ga lijecio

PRE CHORUS:
Debeli mu zidovi
Od oka sunce sakrili,
A prozore je sanjao
Noktima ih crtao

CHORUS:
I kaze
Hej tata, oprosti mi
Sto izgledam kao pas
Hej tata, zelis li
Da sjednem na tvoj znak?

VERSE 2:
U podrumu je cuvao
Izgubljeno sjeme
Jezik mu zazidao
Zaustavio vrijeme


PRE CHORUS


CHORUS


SOLO:
e----------------------------------------------------------------------|
B----------------------------------------------------------------------|
G----------------------------------------------------------------------|
D---4-/2-/4-----/6-/7-/6-/7-----/7-/9-----/11-/9-/7------/7-/4-/2-/4---|
A----------------------------------------------------------------------|
E----------------------------------------------------------------------|

e-------------------------------------------------------------|
B-------------------------------------------------------------|
G-------------------------------------------------------------|
D---/2--/6-/7-/6-/7-----/7-/9-----11/-/9-/7-----/7-/4-/2-/4---|
A-------------------------------------------------------------|
E-------------------------------------------------------------|


OUTRO CHORUS:
Hej tata, oprosti mi
Sto izgledam kao pas
Hej tata, zelis li
Da sjednem na tvoj znak?

Hej tata, oprosti mi
Sto izgledam kao pas
Hej tata
Hej tata
Hej tata
Heeeeej
Tap to rate this tab
# A B C D E F G H I J K L M N O P Q R S T U V W X Y Z