Guitaretab - guitar tabs
Song name
# A B C D E F G H I J K L M N O P Q R S T U V W X Y Z

Laufer - Svijet Za Nas tab

-------------------------------------------------------------------------------
                              Svijet za nas - Laufer
-------------------------------------------------------------------------------

Tabbed by: brian_s
Email: branimir.sremec@kc.t-com.hr

Acoustic intro:
e---------------------------------------------------------------------|
B---------------------------------------------------------------------|
G--2/4---4/7/4/7----7-/9-/7--/4---/1---------------------------------|
D------------------------------------------4--------------------------|
A---------------------------------------------------------------------|
E---------------------------------------------------------------------|

Distorted intro (part 1):          Distorted intro (part 2):
e---------------------------------I-----------------------------|
B---------------------------------I-----------------------------|
G---9--9-9--7--7-7-7----play 7x---I-------------7---------------|
D---9--9-9--7--7-7-7--------------I---9--7----------9---7---9---|
A---7--7-7--5--5-5-5--------------I---------9-------------------|
E---------------------------------I-----------------------------|


Verse chords:
E5: x79900
D:  x57700
A7: 577000
G6: 355000


VERSE 1:
A7              G6           E5 D
U tvom sam gradu u ljetnu noc
A7        G6        E5 D
A zelim tu i ostati
A7          G6        E5 D
Kazes, naci cemo lijek
A7          G6        E5 D
Dopusti da ti pomognem.


VERSE 2:
Mogu li prespavati
Uz tebe sve te godine
Prve suze s lica tvog
Ne zelim da me probude.


CHORUS:
B5
Ne daj mi da vidim
G5       A5
Ovo nije svijet za nas
B5
Ne daj mi da znam
G5                      PLAY DISTORTED INTRO PART 2
Ovo nije svijet za nas.


VERSE 3:
Na tvojim toplim usnama
Zelim da se izgubim
Sa licem svojim pokrij me
I ne daj da me pokvare.


PLAY VERSE 2:


CHORUS 2X:

[ Tab from: http://www.guitaretab.com/l/laufer/86364.html ]
SOLO:
e---------------------------------------------------------------------|
B---------------------------------------------------------------------|
G-------------7--------------------7-----7-9b----9br-7---------------|
D---9--7----------9---7---9-----------9-------------------------------|
A---------9-----------------------------------------------------------|
E---------------------------------------------------------------------|

e-------------------------------I-------------------------------------|
B-------------------------------I-------------------------------------|
G---9/7--7/6---6-6---- play 2x I---11/9---9/7----7-7-----7--6--4----|
D-------------------------------I-------------------------------------|
A-------------------------------I-------------------------------------|
E-------------------------------I-------------------------------------|

e-------------------------------I-------------------------------------|
B-------------------------------I-------------------------------------|
G---9/7--7/6---6-6---- play 2x I---11/7---11/7---11/7-------11-------|
D-------------------------------I-------------------------------------|
A-------------------------------I-------------------------------------|
E-------------------------------I-------------------------------------|

e-----------------------------------------I-------------------------|
B-----------12-12-----10------------------I-------------------------|
G---11-11----------------11-9---- play 3x I----11--9----------------|
D-----------------------------------------I-----------12--9---------|
A-----------------------------------------I-------------------------|
E-----------------------------------------I-------------------------|

e-----------------------------------------I-----------------------------|
B-----------12-12-----10------------------I-----------------------------|
G---11-11----------------11-9---- play 3x I-------------7---------------|
D-----------------------------------------I---9--7----------9---7---9---|
A-----------------------------------------I---------9-------------------|
E-----------------------------------------I-----------------------------|

e---------------------------------------------------------------------|
B---------------------------------------------------------------------|
G---7-----7-9b--9br-7-------------------7---9b----------------------|
D------9---------------------9-9p7---7h9------------------------------|
A----------------------------------9----------------------------------|
E---------------------------------------------------------------------|


PLAY VERSE 2:


CHORUS 2x


G5          A5             B5
Svijet....  Svijet....  Za naaaas....
Related for Svijet Za Nas tab