Guitaretab - guitar tabs
Song name
# A B C D E F G H I J K L M N O P Q R S T U V W X Y Z

Laufer - Izmedju Neba I Mora tab

-------------------------------------------------------------------------------
                          Izmedju neba i mora - Laufer
-------------------------------------------------------------------------------

Tabbed by: brian_s
Email: branimir.sremec@kc.t-com.hr


INTRO:
e--------------------------------------------------------------------|
B--------------------------------------------------------------------|
G--------------------------------------------------------------------|
D---7/9--9-9-----7/9--9-9-9-9----------------------------------------|
A---5/7--7-7-----5/7--7-7-7-7-----7-7---5-5-5------------------------|
E---------------------------------5-5---3-3-3------------------------|

VERSE STUFF:
e--------------------------------------------------------------------|
B--------------------------------------------------------------------|
G--------------------------------------------------------------------|
D---7-7-7/9-----------------5----------------------------------------|
A---5-5-5/7-----------------5----------------------------------------|
E---------------------------3----------------------------------------|

PRE CHORUS:
e-------------2------------------------------------------------------|
B-------------3------------------------------------------------------|
G---4--4-4----2------------------------------------------------------|
D---4--4-4----0----7-7----5-5-5--------------------------------------|
A---2--2-2---------7-7----5-5-5--------------------------------------|
E------------------5-5----3-3-3--------------------------------------|

[ Tab from: http://www.guitaretab.com/l/laufer/87095.html ]
CHORUS:
e--------------------------------------------------------------------|
B--------------------------------------------------------------------|
G------------------4--------------5-------------7--------------------|
D--------2--------------------5-------------7------------------------|
A----0---------2----------3-------------5----------------------------|
E--------------------------------------------------------------------|

BRIDGE:
e--------------------------------------------------------------------|
B--------------------------------------------------------------------|
G--------------------------------------------------------------------| 5x
D------------------------------------------------------7-7-7-7-------|
A---5/7--7-7------5/7--7-7-7-7------3/7-7-7------5/7--5-5-5-5-------|
E---3/5-5-5------3/5-5-5-5-5------3/5-5-5------3/5----------------|

e----------------------------------------------------------------------|
B----------------------------------------------------------------------|
G-----------------------------5--5-5-----7--7-7-7----------------------| 4x
D-----7--7-7-----7--7-7-7-----5--5-5-----7--7-7-7----------------------|
A-----7--7-7-----7--7-7-7-----3--3-3-----5--5-5-5----------------------|
E-----5--5-5-----5--5-5-5----------------------------------------------|

e--------------------------------------------------------------------|
B--------------------------------------------------------------------|
G--------------------------------------------------------------------| 3x
D------------------------------------------------------7-7-7-7-------|
A---5/7--7-7------5/7--7-7-7-7------3/7-7-7------5/7--5-5-5-5-------|
E---3/5-5-5------3/5-5-5-5-5------3/5-5-5------3/5----------------|

e--------------------------------------------------------------------|
B--------------------------------------------------------------------|
G--------------------------------------------------------------------|
D--------------------------------------------------------------------|
A---7-7-7-7-7-7-7-7-7-7-7-7------------------------------------------| PM
E---5-5-5-5-5-5-5-5-5-5-5-5------------------------------------------|

SONG ORDER:

Intro 3x
Verse
Pre chorus 2x
Chorus 4x
Intro 1x
Verse
Pre chorus 2x
Chorus 8x
Bridge
Chorus 11x
Related for Izmedju Neba I Mora tab