Song name
# A B C D E F G H I J K L M N O P Q R S T U V W X Y Z

Lauper Cyndi - Time After Time tab

Time After Time (Acoustic)
Saosin
AOL Sessions

Tuning: Standard

(0:00 - 0:01)
|-----------------|
|--x-x-x-x--------|
|--x-x-x-x--------|
|--x-x-x-x--------|
|--x-x-x-x--------|
|--x-x-x-x--------|

Intro: 

Guitar 1: (0:02 - 0:15)
|----------------------------------------------------|
|----------3----------------3----------------3-------|
|-----2------2---2------2-----2---2------2-----2---2-|
|---0---0------0------2---2-----2------0---0-----0---|
|-------------------0--------------------------------|
|-3-----------------------------------2--------------|
(Continued)
|----------------------------------------------|
|---------3------------------------------------|
|-----2-----2---2------------------------------|
|---0---0-----0--------------------------------|
|----------------------------------------------|
|-3--------------------------------------------|

Guitar 2: (0:02-0:15)                                                                     
|--------------------------------------------------|
|--------------------------------------------------|
|------------------------------------------5~------|
|-3---3---3---5---5---5---2---2---2---2h3----------|
|-3---3---3---5---5---5---2---2---2----------------|
|-1---1---1---3---3---3---0---0---0----------------|

Guitar 2: (0:16)
|-0h2-------------|
|-----3~----------|
|-----------------|
|-----------------|
|-----------------|
|-----------------|

Verse 1:

Guitar 1: (0:16 - 0:31)
|---------------------------------------|
|-----3-----3---------3-------3---------|
|---2-----2---2-----2-------2---2-------|
|-2-----0---------2-------0-------------|
|---------------------------------------|
|---------------------------------------|

Guitar 2: (0:16 - 0:31)
|-----0-----5-----0-----5-----0-----5---|
|---3-----3-----3-----3-----3-----3-----|
|-2-----2-----2-----2-----2-----2-------|
|---------------------------------------|
|---------------------------------------|
|---------------------------------------|

Both Guitars: (0:32 - 0:40)
|----------------------------------------|
|-----3------3--------3------3-----------|
|---2------2---2----2------2---2---------|
|----------------------------------------|
|--------0-------------------------------|
|-3---------------2------3---------------|
(Continued)
|-----------------------0----------------|
|-----3------3--------3---3----3---------|
|---2------2---2----2--------2---0-------|
|----------------------------------------|
|--------0-------------------------------|
|-3---------------2--------3-------------|

Both Guitars: (0:41 - 0:56)
|---------------------------------------|
|-----3-----3---------3-------3---------|
|---2-----2---2-----2-------2---2-------|
|-2-----0---------2-------0-------------|
|---------------------------------------|
|---------------------------------------|

Both Guitars: (0:57 - 0:59)
|----------------------------------------|
|-----3------3--------3------3-----------|
|---2------2---2----2------2---2---------|
|----------------------------------------|
|--------0-------------------------------|
|-3---------------2------3---------------|


Both Guitars: (1:00 - 1: 07)
|-----------------------0----------------|
|-----3------3--------3---3----3---------|
|---2------2---2----2--------2---0-------|
|----------------------------------------|
|--------0-------------------------------|
|-3---------------2--------3-------------|

Chorus:

Guitar 1: (I haven't figured out this part yet)

Guitar 2: (1:08 - 1:35)
|-------------------------------------------|
|-----------1-1-1-1-1-----------------------|
|-----------2-2-2-2-2-----------5-5-5-5-5---|
|-5-5-5-5-5-2-2-2-2-2-3-3-3-3-3-5-5-5-5-5---|
|-5-5-5-5-5-----------3-3-3-3-3-3-3-3-3-3---|
|-3-3-3-3-3-----------1-1-1-1-1-------------|

Fill In:

Guitar 1: (1:36 - 1:49)
|----------------------------------------------------|
|----------3----------------3----------------3-------|
|-----2------2---2------2-----2---2------2-----2---2-|
|---0---0------0------2---2-----2------0---0-----0---|
|-------------------0--------------------------------|
|-3-----------------------------------2--------------|
(Continued)
|----------------------------------------------|
|---------3------------------------------------|
|-----2-----2---2------------------------------|
|---0---0-----0--------------------------------|
|----------------------------------------------|
|-3--------------------------------------------|

Guitar 2:(1:36 - 1:48)
|------10-9-7-7h9p7-5~~-7-5---------------------|
|---8-----------------------8-7-5-7-------------|
|-7---------------------------------7~----------|
|-----------------------------------------------|
|-----------------------------------------------|
|-----------------------------------------------|
(Continued)
|------10-9-7-7h9p7-5~~-7-5---------------------|
|---8-----------------------8-7-5-7-------------|
|-7---------------------------------7~-9s11-7~~-|
|-----------------------------------------------|
|-----------------------------------------------|
|-----------------------------------------------|
Verse 2:

Both Guitars: (1:49 - 2:03)
|---------------------------------------|
|-----3-----3---------3-------3---------|
|---2-----2---2-----2-------2---2-------|
|-2-----0---------2-------0-------------|
|---------------------------------------|
|---------------------------------------|

Both Guitars: (2:04 - 2:12)
|----------------------------------------|
|-----3------3--------3--------3---------|
|---2------2---2----2--------2---0-------|
|----------------------------------------|
|--------0-------------------------------|
|-3---------------2--------3-------------|
(Continued)
|-----------------------0-------------------------------|
|-----3------3--------3---3----------3-------3------3---|
|---2------2---2----2-------2------2---0---2------2---2-|
|-----------------------------0-------------------------|
|--------0----------------------------------------------|
|-3---------------2--------------3--------2-----3-------|

Chorus:

Guitar 1: (I haven't figured out this part yet)

Guitar 2: (2:13- 2:27)
|-------------------------------------------|
|-----------1-1-1-1-1-----------------------|
|-----------2-2-2-2-2-----------5-5-5-5-5---|
|-5-5-5-5-5-2-2-2-2-2-3-3-3-3-3-5-5-5-5-5---|
|-5-5-5-5-5-----------3-3-3-3-3-3-3-3-3-3---|
|-3-3-3-3-3-----------1-1-1-1-1-------------|

Fill In 2:

Guitar 1: (2:28 - 2:41)
|-5-----5-----5----5-----5-----0----5-----5----2---|
|---3-----3-----3----3-----3-----3----3-----3----3-|
|-----2-----2----------2-----2----------2-----2----|
|--------------------------------------------------|
|--------------------------------------------------|
|--------------------------------------------------|

Guitar 2: (2:28 - 2:41)
|---------------------------------------------------|
|-------3----------------3-------------3-------3----|
|---2-------2---2----2-------2---2---2---2---2---2--|
|-----2---2---2--------0---0---0--------------------|
|-0----------------2-----------------------0--------|
|----------------------------------3----------------|
(Continued)
|-------0-------------------|
|-----3---3---3-------------|
|---2-------2---------------|
|-0-------------------------|
|---------------------------|
|---------------------------|

Both Guitars: (2:42 - 2:52)
|----------------------------------------|
|-----3------3--------3--------3---------|
|---2------2---2----2--------2---0-------|
|----------------------------------------|
|--------0-------------------------------|
|-3---------------2--------3-------------|
(Continued)
|-----------------------0-------------------------------|
|-----3------3--------3---3----------3-------3------3---|
|---2------2---2----2-------2------2---0---2------2---2-|
|-----------------------------0-------------------------|
|--------0----------------------------------------------|
|-3---------------2--------------3--------2-----3-------|

Chorus:
Guitar 1: (I haven't figured out this part yet)

Guitar 2: (2:53 -To End)
|-------------------------------------------|
|-----------1-1-1-1-1-----------------------|
|-----------2-2-2-2-2-----------5-5-5-5-5---|
|-5-5-5-5-5-2-2-2-2-2-3-3-3-3-3-5-5-5-5-5---|
|-5-5-5-5-5-----------3-3-3-3-3-3-3-3-3-3---|
|-3-3-3-3-3-----------1-1-1-1-1-------------|

That's it. Sorry if it's not organized.. I'll just update it if you have any comments. :D
Peace. :D

Tap to rate this tab
# A B C D E F G H I J K L M N O P Q R S T U V W X Y Z