Song name
# A B C D E F G H I J K L M N O P Q R S T U V W X Y Z

Laura Jansen - Use Somebody tab

Laura Jansen
use somebody


INTRO

6  ----------------------------------------------------------------------------------------------|
5  -----3-------3-------3-----------3--------3-------3-------------------------------------------|
4  -------2-------2-------2-----------2--------2-------2-----------------------------------------|
3  --0---------------------------0---------------------------------------------------------------|
2  ----------0----------------------------0------------------------------------------------------|
1  ------------------3----------------------------3----------------------------------------------|

	  		 D
I've been roaming around
			A		     G
I was looking down at all I see
	   D		  A		G
Painted faces, fill the places I can't reach


			D	   A	G
You know that I could use somebody
			D	   A		G
You know that I could use somebody, yeah yeah


	     D			A		 G
Someone like you, and all you know, and how you speak
	     D		A	     G
Countless lovers under cover of the street
			D	   A	G
You know that I could use somebody
			D	   A	G
You know that I could use somebody, yeah yeah


	       D	A	G
Someone like you, oh oh oh oh
	       D	A	G
Someone like you, oh oh oh oh

Off in the night, while you live it up, I'm off to sleep

Waging wars to shake the poet and the beat

I hope it's gonna make you notice

I hope it's gonna make you notice

Someone like me, oh oh oh oh

Someone like me, oh oh oh oh

yeah!

-XXX- THE DIFFERENT -XXX-


6 |------------------   ------------- 
5 |-1-------------------------------- -      -    BELIEVE IS CALLED
4 |-2-------------------------------- -      - _
3 |-1----------------     ----------- -         A7
3 |-1----------------     ----------- -         A7
2 |------------------     ----------- 
1 |------------------   ------------- 


I'm ready, I'm ready, I'm ready, now

I'm ready, I'm ready, I'm ready, now

oh oh oh oh

Someone like me, oh oh oh oh

I've been roaming around,

I was looking down at all I see



Ps, this is my first song that I created a tab off, the song isn't that difficult, hope u enjoy


greets
Tap to rate this tab
# A B C D E F G H I J K L M N O P Q R S T U V W X Y Z