Song name
# A B C D E F G H I J K L M N O P Q R S T U V W X Y Z

Laura Jansen - Use Somebody chords

Highlighted       Show chord diagrams
Use Somebody - Laura Jansen

D:        x-x-0-2-3-2-|
Asus4:    x-0-2-2-3-0-|
Gadd2:    3-0-0-0-0-3----------|
Bm7:      x-2-0-2-0-2-|
E:        0-2-2-1-0-0-|
C#m:      x-4-6-6-5-4-|
E/G#      4-2-2-1-0-0-|
Emaj7     0-x-2-4-4-4-|

Note: The notes between () in the 2nd tab-part are optional.


Intro (2x)
E--|----------------|----------------|----------------|----------------|
B--|----------------|----------------|----------------|----------------|
G--|--------2-------|--------2-------|----------------|----------------|
D--|0-----------4---|2-----------4---|0---------------|----------------|
A--|----------------|----------------|----------------|----------------|
E--|----------------|----------------|----------------|----------------|
      D                Asus4            Gadd2
      Woooooh          ooooooohh        oooooohhh ...

                D                    Asus4            Gadd2
I've been roaming around always looking down at all I see
          D               Asus4           Gadd2
Painted faces fill the places I can't reach
                      Bm7        A    Gadd2
You know that I could use somebody
                      Bm7        A    Gadd2
You know that I could use somebody
             D                Asus4                Gadd2
Someone like you, and all you know and how you speak
          D           Asus4            Gadd2
Countless lovers undercover of the street
                      Bm7        A    Gadd2
You know that I could use somebody
                      Bm7        A    Gadd2
You know that I could use somebody
               D             Asus4      Gadd2
Someone like you   oooooh  oooooooh  ooooooh ...
	          Bm7          Asus4      Gadd2
Someone like you   oooooh  ooooooohh  ooooooh ...

           D                       Asus4            Gadd2
Off in the night while you live it up I'm off to sleep
       D                 Asus4           Gadd2
Waging wars to shake the poet and the beat
                  Bm7          A    Gadd2
I hope it's gonna make you notice
                  Bm7          A    Gadd2
I hope it's gonna make you notice
              D             Asus4         Gadd2
Someone like me   Woooooh  ooooooohh  oooooohhh ...
             Bm7            Asus4         Gadd2
Someone like me   Woooooh  ooooooohh  oooooohhh ...

(2x)
E--|----------------|0--(0)----------|--------0--(0)--|----------------|
B--|0---0-------0---|--------4--(4)--|4--(4)----------|0--(0)-(0)-(0)--|
G--|--------1-------|----------------|----------------|----------------|
D--|----------------|----------------|----------------|----------------|
A--|----------------|----------------|----------------|----------------|
E--|----------------|----------------|----------------|----------------|
      E                Emaj7            C#m              E

    E           E/G#      C#m            E
I'm ready, I'm ready, I'm ready now
    E           E/G#      C#m            E
I'm ready, I'm ready, I'm ready now

D         Asus4         Gadd2
Woooooh  ooooooohh  oooooohhh ...
             Bm7      Asus4         Gadd2
Someone like me   ooooooohh  oooooohhh ...


                   D                    Asus4         Gadd2
I've been roaming around and I was looking down at all I see
Tap to rate this tab
 
# A B C D E F G H I J K L M N O P Q R S T U V W X Y Z