Guitaretab - guitar tabs
Song name
# A B C D E F G H I J K L M N O P Q R S T U V W X Y Z

Laura Marling - Night Terror tab

-------------------------------------------------------------------------------
			    Night Terror violin solo- Laura Marling
-------------------------------------------------------------------------------
Song: Night Terror violin solo
Artist: Laura Marling
Album: Alas, I cannot swim
BPM: 42-48

Tuning: Standard (EADGBe)

2:13s
e|---------------------------------------------------------------------------------|
B|---------------------------------------------------------------------------------|
G|-6~---8-9-8--6--/13~--11--11-9------------6-8-9-11-9-8-6~---6-8-9-/11-9-8~---/13-|
D|-------------------------------11--11~-------------------------------------------|
A|---------------------------------------------------------------------------------|
E|---------------------------------------------------------------------------------|

e|---------------------------------------------------------------------------------|
B|---------------------------------------------------------------------------------|
G|-6~---8-9-8--6--/13~--11--11-9------------6-8-9-11-9-8-6~---6-8-9-/11-9-8~---/13-|
D|-------------------------------11--11~-------------------------------------------|
A|---------------------------------------------------------------------------------|
E|---------------------------------------------------------------------------------|
[ Tab from: http://www.guitaretab.com/l/laura-marling/189572.html ]
e|-9~---11-12-11-9--/16~--14ó14-12---------9-11-12-14-12-11-9~--9-11-12-14-12-11~---/16|
B|----------------------------------14-14~---------------------------------------------|
G|-------------------------------------------------------------------------------------|
D|-------------------------------------------------------------------------------------|
A|-------------------------------------------------------------------------------------|
E|-------------------------------------------------------------------------------------|

e|-9~---11-12-11-9--/16~--14ó14-12---------9-11-12-14-12-11-9~--9-11-12-14-12-11~---/16|
B|----------------------------------14-14~---------------------------------------------|
G|-------------------------------------------------------------------------------------|
D|-------------------------------------------------------------------------------------|
A|-------------------------------------------------------------------------------------|
E|-------------------------------------------------------------------------------------|

e|-14-12-11--/21~------------------------------------------------------------|
B|---------------------------------------------------------------------------|
G|---------------------------------------------------------------------------|
D|---------------------------------------------------------------------------|
A|---------------------------------------------------------------------------|
E|---------------------------------------------------------------------------|

Notes: the key may be slightly off and the timings up to your discretion, but 
itís pretty sound.

Enjoy.

| /  slide up
| \  slide down
| h  hammer-on
| p  pull-off
| ~  vibrato
| +  harmonic
| x  Mute note
===============================================================================
Related for Night Terror tab