Laura Marling - Shes Changed tab

e|------------4--------------------------------------0-------------------------|
B|---------5--------------------7----------------------------------------------|
G|-----4---------------------6------------------2---------2--------------------|
D|-----------------------7-----------------1-------------------1---------------|
A|--7--------------------------------------------------------------0-----------|
E|--------------------5-----------------0--------------------------------------|

e|---------------------------------------------------------------------------|
B|--------------5------------------------------------------------------------|
G|----------4----------------------------------------------------------------|
D|------6--------------------------------------------------------------------|
A|--7------------------------------------------------------------------------|
E|---------------------------------------------------------------------------|
Tap to rate this tab
 
# A B C D E F G H I J K L M N O P Q R S T U V W X Y Z