Song name
# A B C D E F G H I J K L M N O P Q R S T U V W X Y Z

Laura Marling - Dreaming tab

No Capo

E|------------------------------0-------|
A|--------3---------3-------3-------3---|
D|------0---0-----0---0---0---0---0---0-|
G|--------------------------------------|
B|--------------------------------------|
E|---3----------2-------0---------------|

E|---------------------------0----------|
A|-------3-------3-------3-------3------|
D|-----0---0---0---0---0---0---0---0----|
G|--------------------------------------|
B|---3-------5-------0------------------|
E|--------------------------------------|

E|---------------------------0----------|
A|-------3-------3-------3-------3------|
D|-----0---0---0---0---0---0---0---0----|
G|--------------------------------------|
B|---3-------2-------0------------------|
E|--------------------------------------|

E|---------------------------0----------|
A|-------3-------3-------3-------3------|
D|-----0---0---0---0---0---0---0---0----|
G|--------------------------------------|
B|---3-------2-------5------------------|
E|--------------------------------------|
Tap to rate this tab
 
# A B C D E F G H I J K L M N O P Q R S T U V W X Y Z