Song name
# A B C D E F G H I J K L M N O P Q R S T U V W X Y Z

Laura Marling - Sophia tab

Laura Marling
Sophia
Tuning: DGDGBD
Capo 2nd

There's basically just a few sections which are repeated.

All the hammer ons are on then of so eg. 0 2h 0

The song is all plucked up until the first chorus.

NB. The lyrics don't match up with the timing, make sure you listen to the song to get
it right, though its very regular.

http://www.youtube.com/watch?v=j-TMl5oCRjk&ob=av2n

Intro:

D|-2---5---4---2---0h2---------------------|
B|-1---5---3---1---0h1-0---1---1---0h1-----|
G|---0---0---0---0-0---0---0---0--0h0------|
D|---------------------0---2---2---0h2-----|
G|-----------------------0---0---0-----0---|
D|-----------------------------------------|

First Verse:

Oh I have been wondering, (Where I have been pondering)
D|-2---5---4---2---0h2-------------|
B|-1---5---3---1---0h1-0---1---0---|
G|---0---0---0---0-0---0---0---0---|     X2
D|---------------------0---2---0---|
G|-----------------------0---0---0-|
D|---------------------------------|

Where I've been lately is no concern of yours
D|-5---7---10---9---7---5---4---2----------------------|
B|-5---7---10---8---7---5---3---1----0---0---1---1---0-|
G|---0---0----0----0---0---0---0---0-0---0---0---0---0-|
D|-----------------------------------0---0---2---2---0-|
G|-------------------------------------0---0---0---0---|
D|-----------------------------------------------------|


Who's been touching my skin, (Who have I been letting)
D|-2---5---4---2---0h2-------------|
B|-1---5---3---1---0h1-0---1---0---|
G|---0---0---0---0-0---0---0---0---|     X2
D|---------------------0---2---0---|
G|-----------------------0---0---0-|
D|---------------------------------|

Shy and tired I am I today
D|-5---7---10---9---7---5---4---2------------------------------------|
B|-5---7---10---8---7---5---3---1----0---0---1---1---0---0---0---0---|
G|---0---0----0----0---0---0---0---0-0---0---0---0---0---0---0---0---|
D|-----------------------------------0---0---2---2---0---0---0---0---|
G|-------------------------------------0---0---0---0---0---0---0---0-|
D|-------------------------------------------------------------------|

Bridge Thing:

Ooooooooo Ooooo Ooo Ooo
D|--9---9---9---9---7---7---5---3-|
B|--8---8---8---8---7---7---5---2-|
G|--0---0---0---0---0---0---0---0-|    X4 (X2 Plucked X2 Strumming)
D|--------------------------------|
G|0---0---0---0---0---0---0---0---|
D|--------------------------------|


Chorus (Strummed):

I'm wounded by dust
D|-0h2---0---0---0---3---0-|
B|-0h1---0---7---5---0---0-|
G|-0-----0---0---0---4---0-|     X4
D|-0-----0---7---5---0---0-|
G|-0-----0---0---0---0---0-|
D|-------------------------|


Verse 1 (Strummed)

Oh I have been wondering, (Where I have been pondering)
D|-2---5---4---2---0h2-------------|
B|-1---5---3---1---0h1-0---1---0---|
G|---0---0---0---0-0---0---0---0---|     X2
D|---------------------0---2---0---|
G|-----------------------0---0---0-|
D|---------------------------------|

Where I've been lately is no concern of yours
D|-5---7---10---9---7---5---4---2----------------------|
B|-5---7---10---8---7---5---3---1----0---0---1---1---0-|
G|---0---0----0----0---0---0---0---0-0---0---0---0---0-|
D|-----------------------------------0---0---2---2---0-|
G|-------------------------------------0---0---0---0---|
D|-----------------------------------------------------|

Who's been touching my skin, (Who have I been letting)
D|-2---5---4---2---0h2-------------|
B|-1---5---3---1---0h1-0---1---0---|
G|---0---0---0---0-0---0---0---0---|     X2
D|---------------------0---2---0---|
G|-----------------------0---0---0-|
D|---------------------------------|

Shy and tired I am I today
D|-5---7---10---9---7---5---4---2----------------------------------------|
B|-5---7---10---8---7---5---3---1----0---0---0h1---0h1---0---0---0---0---|
G|---0---0----0----0---0---0---0---0-0---0---0-----0-----0---0---0---0---|
D|-----------------------------------0---0---0h2---2h2---0---0---0---0---|
G|-------------------------------------0---0-----0---0---0---0---0---0---|
D|-----------------------------------------------------------------------|

Bridge Thing (Strummed):

Ooooooooo Ooooo Ooo Ooo
D|--9---9---9---9---7---7---5---3-|
B|--8---8---8---8---7---7---5---2-|
G|--0---0---0---0---0---0---0---0-|    X5
D|--------------------------------|
G|0---0---0---0---0---0---0---0---|
D|--------------------------------|


Chorus (Strummed):

I'm wounded by dust
D|-0h2---0---0---0---3---0-|
B|-0h1---0---7---5---0---0-|
G|-0-----0---0---0---4---0-|     X4
D|-0-----0---7---5---0---0-|
G|-0-----0---0---0---0---0-|
D|-------------------------|


Verse 1 Strummed again

The next bit is basically just Open with hammer ons on 1st fret B string and 2nd fret on 
the Low D


Then its just the sections above thrown in and strummed till the end of the song. Hope 
that makes sense.

Any Feedback or mistakes let me know: max16792@gmail.com
Tap to rate this tab
# A B C D E F G H I J K L M N O P Q R S T U V W X Y Z