Song name
# A B C D E F G H I J K L M N O P Q R S T U V W X Y Z

Laura Marling - Sophia tab

Such a beautiful song! I'm pretty sure this is right, but let me know if you spot 
anything. Try to dull the bottom to strings a bit.

Sophia - Laura Marling
TUNING Open G (DGDGBD)
Capo on 2
Tabbed by: Leah
Email: lebee17@hotmail.com


INTRO
D|--2-----5-----4-----2-----0h2p0----0----------------------------------|
B|--1-----5-----3-----1-----0h1p0----0------1----1--1----0------0h1p0---|
G|-----0-----0-----0-----0-----------0----------------------------------|
D|-----------------------------------0------2----2--2----0------0h2p0---|
G|--0-----0-----0-----0--------------X--------0-------------------------|
D|-----------------------------------X----------------------------------|

VERSE  x 2
D |--2------5------4------2------0h2p0------------=---------|
B |--1------5------3------1------0h1p0--------1------0------|
G |------0------0------0------0-----------------------------|
D |-------------------------------------------2------0------|
G |--0------0------0------0---------------0------0-------0--|
D |---------------------------------------------------------|
     Oh     I     have   been wondering
     Where I have been pondering

D|--5----7----10----9----7----5----3----1----0------------------------------|
B|--5----7----10----8----7----5----4----2----0----0-----1----1----0----0----|
G|----0----0-----0----0----0----0----0-----0----0---------------------------|
D|------------------------------------------------0-----2----2----0----0----|
G|--0----0-----0----0----0----0----0----0----0-------0-----0----0----0---0--|
D|--------------------------------------------------------------------------|
  Where I've  be - en   late-ly's  no concern of yours

Who's been touching my skin?
Who have I been letting?
Shy and tired eyed am I today

BRIDGE   x 4  (begin softly strumming the last 2 times)
D |----------------------------------|
B |--14--14--14--14--12--12--10--10--|
G |--14--14--14--14--13--13--11--11--|
D |----------------------------------|
G |----------------------------------|
D |----------------------------------|

CHORUS  X 2
D |--0----0----0----0----0----0----0----0----0----0----0----0----0----0--|
B |--0----1----3----7----5----4----0----0----1----3----7----5----4----0--|
G |--0----0----0----0----0----0----0----0----0----0----0----0----0----0--|
D |--0----2----4----7----5----4----0----0----2----4----7----5----4----0--|
G |--0----0----0----0----0----0----0----0----0----0----0----0----0----0--|
D |--0----0----0----0----0----0----0----0----0----0----0----0----0----0--|
 I'm wo - o -  o -  o -  o - ou - nded
 By dust

(repeat both verses, same lyrics)

BRIDGE  x 5
(last 3 times)  Sometimes I sit, sometimes I stare
		Sometimes they look and sometimes I don't care
                Rarely I weep sometimes I must

CHORUS

VERSE (no words)

VERSE B  x 8
D |--0--------------------------------0--0----0--|  Strumming v ^ v ^ v^ vv^
B |--0--------------------------------1--1----0--|
G |--0--------------------------------0--0----0--|
D |--0--------------------------------2--2----0--|
G |--0--------------------------------0--0----0--|
D |--0--------------------------------0--0----0--|
When the bell toll, when the bell gon' chime
You better call for your woman up high
And when the bell tolls for your last day,
You'll be getting down on your knees to pray
I'm a good woman and I never did say
Whatever it was that you did that day
I'm not a woman to go and place blame
but you said that it was coming on judgment day

CHORUS x 4
Now Sophia
I'm wounded
By dust

VERSE B x 9 (first time without lyrics)

CHORUS x 12
Oh Sophia
I'm wounded
By dust
Now Sophia



Enjoy!
Leah x
Tap to rate this tab
# A B C D E F G H I J K L M N O P Q R S T U V W X Y Z