Song name
# A B C D E F G H I J K L M N O P Q R S T U V W X Y Z

Laura Marling - All My Rage tab

Our first attempt at tabbing anything. Watch the video for the rhythm and such. 
(http://www.youtube.com/watch?v=2gadIQwnT70)

Tuning: CGCCGC


---2/4---4-2--0---5/7----7--5-4--|
---0-0---0-0--0---0-0----0--0-0--|
---0-0---0-0--0---0-0----0--0-0--|
---2/4---4-2--0---5/7----7--5-4--|
---0-0---0-0--0---0-0----0--0-0--|
---0-0---0-0--0---0-0----0--0-0--|


-9/12-----12---9---7----7---4----2----|
-0--0------0---9---0----0---0----0----|
-0--0------0---9---0----0---0----0----|
-9/12-----12---9---7----7---4----2----|
-0--0------0---9---0----0---0----0----|
-0--0------0---9---0----0---0----0----|


-----0-0---0---0-0-0--------|
-----2/5---5---5/2/5--------|
-----0-0---0---0-0-0--------|
-----0-0---0---0-0-0--------|
-----2/5---5---5/2/5--------|
-----0-0---0---0-0-0--------|

These first three are for the intro and the verses.




--0---0---0---0---0----0---0---0---0-------|
--0---0---0---0---0----0---0---0---0-------|
--0---0---0---0---0----0---0---0---0-------|
--0---0---0---0---0----0---0---0---0-------|
--0---5---4---2---0----5---4---2---0-------|
--0---0---0---0---0----0---0---0---0-------|

All my rage been gone....



--0---0---0---0---------|
--0---0---0---0---------|
--0---0---0---0---------|
--0---0---0---0---------|
--5---4---5---4---------|
--0---0---0---0---------|

I leave my rage to the sea and the sun... x2





tabbed by Priscilla and Ashley :)
Tap to rate this tab
# A B C D E F G H I J K L M N O P Q R S T U V W X Y Z