Song name
# A B C D E F G H I J K L M N O P Q R S T U V W X Y Z

Laura Marling - Nature Of Dust tab

Laura marling The Nature of Dust "the first laura marling song you can dance too"
tuning: DADF#AD
capo:  5 fret

Intro: basically listen to the song for the strumming pattern
D|---0---0----|
A|---0---0----|
F#|--0---0h1--|
D|---0---0----|
A|---0---0h2--|
D|---0---0----|
roughly 20 times throughout the whole Intro

(this is not 100% accurate but it sounds good enough, listen to the song for when the 
chords are played and strummed)

 - and his love and his kindness was something i had to understand in time-
D|------7---9------------------0------------|
A|-------------------------------0----------|
F#|-----7--8----5----3--0----0-----0h1------|
D|-------------------------------0----------|
A|-------------------------------0-----0h2--|
D|----------------5----4--0----0------------|

too late to start, but you broke my heart
D|--------------------------0---------|
A|--------------------------0---------|
F#|--5----3---531-0-----0---0h1-------|
D|---------------------------0--------|
A|---------------------------0---0h2--|
D|---5----4---542--0-----0------------|

Then:
(B)
Intro: basically listen to the song for the strumming pattern
D|---0---0------------------------------------------------------------------------------|
A|---0---0------------------------------------------------------------------------------|
F#|--0---1------------------------------------------------------------------------------|
D|---0---0------------------------------------------------------------------------------|
A|---0---2------------------------------------------------------------------------------|
D|---0---0------------------------------------------------------------------------------|

(A)
(barr) this is the same rhythm as the beginning
D|------5---5----------------------------------------------------------------------------|
A|------5---5----------------------------------------------------------------------------|
F#|----5----6----------------------------------------------------------------------------|
D|------5---5----------------------------------------------------------------------------|
A|------5---7----------------------------------------------------------------------------|
D|------5---5----------------------------------------------------------------------------|

intro X7
It's the nature of dust (A)
that's all about us
it's all about me
and 
it's all about love
and that's a dangerous mix (B)
if you don't get it 
right
and it'll come (A) and get you in the dead of the night.
(B)And when they leave, and they do
(A)o it's bad, o it's bad
it's the nature of dust
-you can pretty much pick up the beat for the rest of the second chorus
Tap to rate this tab
 
# A B C D E F G H I J K L M N O P Q R S T U V W X Y Z