Song name
# A B C D E F G H I J K L M N O P Q R S T U V W X Y Z

Laura Marling - Be Gone Beast Medley tab

Be Gone Beast (Untitled) Medley-Laura Marling
Based off this performance- http://www.youtube.com/watch?v=_liKXfMdOrk
Tuning: CGCGGE# with Capo 1

BE GONE BEAST
Intro and Verse 1
C#|--0--0--0---0----0---|
G#|---0--0--h2--h4--h2--|
C#|---0--0--0---0----0--|
G#|---0--0--0---0---0---|
G#|---0--0--0---0---0---|
F |---0--0--0---0---0---|
You should be gone beast
Be gone from me
Be gone from my mind at least
Let a little lady be
I don't want you to want me
Wouldn't want you to know
I don't care where you've gone beast
I care where you go
Take the night off
be bad for me

In Between Verses Play
--0--0--0--0--0--0--0--0--0--|
--0--2--4--5--7--9-10-12-14--| X2
--0--0--0--0--0--0--0--0--0--|
--0--0--0--0--0--0--0--0--0--|
--0--0--0--0--0--0--0--0--0--|
--0--0--0--0--0--0--0--0--0--|

Verse 1 cont.
C#|--0--0--0---0----0---|
G#|---0--0--h2--h4--h2--|
C#|---0--0--0---0----0--|
G#|---0--0--0---0---0---|
G#|---0--0--0---0---0---|
F |---0--0--0---0---0---|
Take your right(?) off and
be bad for me

Play in between bit again
--0--0--0--0--0--0--0--0--0--|
--0--2--4--5--7--9-10-12-14--| X2
--0--0--0--0--0--0--0--0--0--|
--0--0--0--0--0--0--0--0--0--|
--0--0--0--0--0--0--0--0--0--|
--0--0--0--0--0--0--0--0--0--|


Verse 2
---0--0--0---0----0--|
---0--0--h2--h4--h2--|
---0--0--0---0---0---|
---0--0--0---0---0---|
---0--0--0---0---0---|
---0--0--0---0---0---|
I didn't understand where you had gone
Didn't know you'd be right back
I didn't hear the night song
Calling you into the black
I didn't ask you to say me
Not when you knew me well
I wouldn't even ask you to behave for me
I know there's no help in hell
Take the night off and
be bad for me

Play mid-section again
--0--0--0--0--0--0--0--0--0--|
--0--2--4--5--7--9-10-12-14--| X2
--0--0--0--0--0--0--0--0--0--|
--0--0--0--0--0--0--0--0--0--|
--0--0--0--0--0--0--0--0--0--|
--0--0--0--0--0--0--0--0--0--|

Transition by strumming open

I WAS AN EAGLE
Intro
--0--0--|
--0--0--|
--0--0--|X2
--0--0--|
--0--5--|
--0--5--|

Verse 1
--0--0--|
--0--0--|
--0--0--|X4
--0--0--|
--0--5--|
--0--5--|
So your grandmother sounds to me
A woman I would be proud to be
And you say she reminds you of me
Every little boy is so na´ve, oh

--0--0--|
--0--0--|
--2--4--|X5
--0--0--|
--2--4--|
--0--0--|
I will not be a victim of romance
I will not be a victim of circumstance
Chance of circumstance and romance of any man
Who can get his dirty little hands on me
Oh, No

--0--0--0--0--0--0--0--0--0--|
--0--0--0--0--0--0--0--0--0--|
--0--2--4--5--7--9-10-12-14--| X2
--0--0--0--0--0--0--0--0--0--|
--0--2--4--5--7--9-10-12-14--|
--0--0--0--0--0--0--0--0--0--|
Verse 2
--0--0--|
--0--0--|
--0--0--|X4
--0--0--|
--0--5--|
--0--5--|
So your grandfather sounds to me
Head up, shoulders back, and proud to be
Every little girl is so na´ve
Falling in love with the first man that she see, oh

--0--0--|
--0--0--|
--2--4--|X5
--0--0--|
--2--4--|
--0--0--|
I will not be a victim of romance
I will not be a victim of circumstance
Chance of circumstance and romance of any man
Who can get his dirty little hands on me
Oh, no

--0--0--0--0--0--0--0--0--0--|
--0--0--0--0--0--0--0--0--0--|
--0--2--4--5--7--9-10-12-14--| X2
--0--0--0--0--0--0--0--0--0--|
--0--2--4--5--7--9-10-12-14--|
--0--0--0--0--0--0--0--0--0--|
BRIDGE

-10--7--5--3--0--|
--0--0--0--0--0--|
-10--7--5--3--0--|X2
--0--0--0--0--0--|
--0--0--0--0--0--|
--0--0--0--0--0--|
When we were in love
If we were
When we were in love

--0--5--|
--0--5--|
--0--5--|
--0--5--|
--0--5--|
--0--5--|
I was an eagle
And you were a dove

--0--0--0--0--0--0--0--0--0--|
--0--0--0--0--0--0--0--0--0--|
--0--2--4--5--7--9-10-12-14--| X2
--0--0--0--0--0--0--0--0--0--|
--0--2--4--5--7--9-10-12-14--|
--0--0--0--0--0--0--0--0--0--|

Verse 3
--0--0--|
--0--0--|
--0--0--|X4
--0--0--|
--0--5--|
--0--5--|
Today I will feel something other than regret
Pass me a glass and a half-smoked cigarette
I damn near got no dignity left
I damn near got no dignity left, oh

--0--0--|
--0--0--|
--2--4--|X5
--0--0--|
--2--4--|
--0--0--|
And I will not be a victim of romance
I will not be a victim of circumstance
Chance of circumstance and romance of any man
Who can get his dirty little hands on me
Oh, no

--0--0--0--0--0--0--0--0--0--|
--0--0--0--0--0--0--0--0--0--|
--0--2--4--5--7--9-10-12-14--| X2
--0--0--0--0--0--0--0--0--0--|
--0--2--4--5--7--9-10-12-14--|
--0--0--0--0--0--0--0--0--0--|

Repeat Bridge

-10--7--5--3--0--|
--0--0--0--0--0--|
-10--7--5--3--0--|X2
--0--0--0--0--0--|
--0--0--0--0--0--|
--0--0--0--0--0--|
When we were in love
If we were
When we were in love

--0--0--|
--0--0--|
--0--0--|
--0--0--|
--0--5--|
--0--5--|
You were a dove
And I rose above you and prayed

Transition by strumming open

TROUBADOUR (I KNOW, YOU KNOW, I KNOW)

Intro/Verse (heavy vibrato)
--0--0--0--0--0|
--0--0--0--0--0|
--0--0--0--0--0|
--5--4--3--2--0|
--5--4--3--2--0|
--0--0--0--0--0|
Damn all those people who don't lose control
Who will never take a foot out of life
|--0--0--0--0--2--2--0--|
|--5--4--2--0--0--0--0--|
|--0--0--0--0--0--0--0--|
|--0--0--0--0--0--0--0--|
|--0--0--0--0--0--0--0--|
|--0--0--0--0--0--0--0--|
You might not care what I think but you don't know what I know

--0--0--0--0--0|
--0--0--0--0--0|
--0--0--0--0--0|
--5--4--3--2--0|
--5--4--3--2--0|
--0--0--0--0--0|
And damn all those hippies who stomp empty-footed
Upon all that's good, all that's pure of the world
|--0--0--0--0--2--2--0--|
|--5--4--2--0--0--0--0--|
|--0--0--0--0--0--0--0--|
|--0--0--0--0--0--0--0--|
|--0--0--0--0--0--0--0--|
|--0--0--0--0--0--0--0--|
You might not think that I care but you don't know what I know

--0--0--0--0--0|
--0--0--0--0--0|
--0--0--0--0--0|
--5--4--3--2--0|
--5--4--3--2--0|
--0--0--0--0--0|
And bless all those mothers who do all they can
Just to take their faults out of the line

|--0--0--0--0--2--2--0--|
|--5--4--2--0--0--0--0--|
|--0--0--0--0--0--0--0--|
|--0--0--0--0--0--0--0--|
|--0--0--0--0--0--0--0--|
|--0--0--0--0--0--0--0--|
I might not know what it's like but I'm glad that you know

Chorus
--0--0--0--0--|
--0--0--0--0--|
--0--0--0--0--|  X2
--0--0--0--0--|
--7--9--7--9--|
--7--8--7--8--|
Give me minute there
Just a minute now
It'll come back to me
I was so sure that you'd be willing troubadour
You took my mind off the seam (?)

--0--0--0--0--2--2--0--|
--5--4--2--0--0--0--0--|
--0--0--0--0--0--0--0--| X2
--0--0--0--0--0--0--0--|
--0--0--0--0--0--0--0--|
--0--0--0--0--0--0--0--|
And you know, and I know, I know, I know that you know

Verse 2
--0--0--0--0--0|
--0--0--0--0--0|
--0--0--0--0--0|
--5--4--3--2--0|
--5--4--3--2--0|
--0--0--0--0--0|
You asked me blind once
If I was a child once
And I said I'm really not sure
|--0--0--0--0--2--2--0--|
|--5--4--2--0--0--0--0--|
|--0--0--0--0--0--0--0--|
|--0--0--0--0--0--0--0--|
|--0--0--0--0--0--0--0--|
|--0--0--0--0--0--0--0--|
How can you, how can you know
What it is you don't know

--0--0--0--0--0|
--0--0--0--0--0|
--0--0--0--0--0|
--5--4--3--2--0|
--5--4--3--2--0|
--0--0--0--0--0|
We were a pair once
Of so much despair oh
We were a child then I'm sure

|--0--0--0--0--2--2--0--|
|--5--4--2--0--0--0--0--|
|--0--0--0--0--0--0--0--|
|--0--0--0--0--0--0--0--|
|--0--0--0--0--0--0--0--|
|--0--0--0--0--0--0--0--|
If we were a child then we are children no more

Repeat chorus again

BREATHE
Intro
--0--0--0--0--0--0--0--0--|
--0--0--0--0--0--0--0--0--|
--0--0--0--0--0--0--0--0--| X3
--0--0--0--0--0--0--0--0--|
-12-11--9--7--5--4--2--0--|
--0--0--0--0--0--0--0--0--|

Verse 1
--0--0--0--0--0--0--0--0 --0--0--0--0--0-|
--0--0--0--0--0--0--0--0--0--0--0--0--0--|
--0--0--0--0--0--0--0--0--6--0--6--7--0--| X2
--0--0--0--0--0--0--0--0--0--0--0--0--0--|
-12-11--9--7--5--4--2--0--0--0--0--0--0--|
--0--0--0--0--0--0--0--0--0--0--0--0--0--|
You came here to tell me something I already know
Dark before the dawn is done (?)
Darkest that I know

--0--0--0--0--0--0--0--0 --0--0--0--0--0-|
--0--0--0--0--0--0--0--0--0--0--0--0--0--|
--0--0--0--0--0--0--0--0--0--0--0--0--0--|
--0--0--0--0--0--0--0--0--0--0--0--0--0--|
-12-11--9--7--5--4--2--0--2--0--2--4--0--|
--0--0--0--0--0--0--0--0--0--0--0--0--0--|
Calm before the storm is what leaves me here to breathe

Chorus
--0--|
--0--|
--0--|
--4--|
--4--|
--0--|
So breathe
--0--0--0--0--0--0--0--0--0--0--0--0--0--0--0--0--0--0--0--|
--0--0--0--0--0--0--0--0--0--0--0--0--0--0--0--0--0--0--0--|
--0--0--0--0--0--0--0--0--0--0--0--0--0--0--0--0--0--0--0--|
--0--0--0--0--0--0--0--0--0--0--0--0--0--0--0--0--0--0--0--|
--0--0--0--0--0--0--0--0--0--0--0--0--0--0--0--0--0--0--0--|
--2--0--2--3--2--0--5--3--2--2--0--2--3--0--5--3--2--2--0--|

Verse 2
--0--0--0--0--0--0--0--0 --0--0--0--0--0-|
--0--0--0--0--0--0--0--0--0--0--0--0--0--|
--0--0--0--0--0--0--0--0--6--0--6--7--0--| X2
--0--0--0--0--0--0--0--0--0--0--0--0--0--|
-12-11--9--7--5--4--2--0--0--0--0--0--0--|
--0--0--0--0--0--0--0--0--0--0--0--0--0--|
And I saw constant banging, throwing, fists against the wall
Screaming at the Earth for what it's done to one and all

--0--0--0--0--0--0--0--0 --0--0--0--0--0-|
--0--0--0--0--0--0--0--0--0--0--0--0--0--|
--0--0--0--0--0--0--0--0--0--0--0--0--0--|
--0--0--0--0--0--0--0--0--0--0--0--0--0--|
-12-11--9--7--5--4--2--0--2--0--2--4--0--|
--0--0--0--0--0--0--0--0--0--0--0--0--0--|
I came here to tell you something you already know

 Repeat Chorus
--0--|
--0--|
--0--|
--4--|
--4--|
--0--|
Breathe
--0--0--0--0--0--0--0--0--0--0--0--0--0--0--0--0--0--0--0--|
--0--0--0--0--0--0--0--0--0--0--0--0--0--0--0--0--0--0--0--|
--0--0--0--0--0--0--0--0--0--0--0--0--0--0--0--0--0--0--0--|
--0--0--0--0--0--0--0--0--0--0--0--0--0--0--0--0--0--0--0--|
--0--0--0--0--0--0--0--0--0--0--0--0--0--0--0--0--0--0--0--|
--2--0--2--3--2--0--5--3--2--2--0--2--3--0--5--3--2--2--0--|
Breathe

Bridge
--0--0--0--|
--4--2--0--|
--0--0--0--| X4
--0--0--0--|
--0--0--0--|
--0--0--0--|
How cruel am I to you
Hmm cruel things I do
How cruel you are to me
How cruel time can be

Verse 3
--0--0--0--0--0--0--0--0 --0--0--0--0--0-|
--0--0--0--0--0--0--0--0--0--0--0--0--0--|
--0--0--0--0--0--0--0--0--6--0--6--7--0--| X2
--0--0--0--0--0--0--0--0--0--0--0--0--0--|
-12-11--9--7--5--4--2--0--0--0--0--0--0--|
--0--0--0--0--0--0--0--0--0--0--0--0--0--|
I wrote you a book but I left it out in the rain
Left it there to dry but it got rained on once again

--0--0--0--0--0--0--0--0 --0--0--0--0--0-|
--0--0--0--0--0--0--0--0--0--0--0--0--0--|
--0--0--0--0--0--0--0--0--0--0--0--0--0--|
--0--0--0--0--0--0--0--0--0--0--0--0--0--|
-12-11--9--7--5--4--2--0--2--0--2--4--0--|
--0--0--0--0--0--0--0--0--0--0--0--0--0--|
Me (?) of constant banging, throwing, fists against the wall

Repeat Chorus
--0--|
--0--|
--0--|
--4--|
--4--|
--0--|
Just breathe
--0--0--0--0--0--0--0--0--0--0--0--0--0--0--0--0--0--0--0--|
--0--0--0--0--0--0--0--0--0--0--0--0--0--0--0--0--0--0--0--|
--0--0--0--0--0--0--0--0--0--0--0--0--0--0--0--0--0--0--0--|
--0--0--0--0--0--0--0--0--0--0--0--0--0--0--0--0--0--0--0--|
--0--0--0--0--0--0--0--0--0--0--0--0--0--0--0--0--0--0--0--|
--2--0--2--3--2--0--5--3--2--2--0--2--3--0--5--3--2--2--0--|
Breathe

Repeat Bridge
--0--0--0--|
--4--2--0--|
--0--0--0--| X4
--0--0--0--|
--0--0--0--|
--0--0--0--|
How cruel I am to you
Hmm cruel things I do
How cruel you are to me
How cruel men can be

Bridge 2
--0--0--0--0--0--0--0--0--0--|
--0--0--0--0--0--0--0--0--0--|
--0--0--0--0--0--0--0--0--0--|X2
--12-14-11-12-9--7--2--0--0--|
--12-14-11-12-9--7--2--0--0--|
--0--0--0--0--0--0--0--0--0--|
When you wake you'll know I'm gone and
Where I'm going there's no one

--0--0--0--|
--4--2--0--|
--0--0--0--| X3
--0--0--0--|
--0--0--0--|
--0--0--0--|
So don't follow me
Whatever you may here or see
Don't follow me

--0--0--0--0--0--0--0--0--0--|
--0--0--0--0--0--0--0--0--0--|
--0--0--0--0--0--0--0--0--0--| X2
--12-14-11-12-9--7--2--0--0--|
--12-14-11-12-9--7--2--0--0--|
--0--0--0--0--0--0--0--0--0--|
When you wake you'll know I'm gone and
Where I'm going there's no one

--0--0--0--|
--4--2--0--|
--0--0--0--| X3
--0--0--0--|
--0--0--0--|
--0--0--0--|
Don't follow me
Whatever you may here or see
Don't follow me

ENDING
--0--0--0--0--0--0--0--0--|
--0--0--0--0--0--0--0--0--|
--0--0--0--0--0--0--0--0--| X2
--0--0--0--0--0--0--0--0--|
-12-11--9--7--5--4--2--0--|
--0--0--0--0--0--0--0--0--|

Then just strum this for a couple beats
--0--|
--2--|
--0--|
--2--|
--0--|
--0--|

And play this two more times
--0--0--0--0--0--0--0--0--0--|
--0--2--4--5--7--9-10-12-14--| X2
--0--0--0--0--0--0--0--0--0--|
--0--0--0--0--0--0--0--0--0--|
--0--0--0--0--0--0--0--0--0--|
--0--0--0--0--0--0--0--0--0--|

And finally this twice
--0--2--2--2--0--|
--4--0--0--0--0--|
--0--0--0--0--0--|  X2
--0--0--0--0--0--|
--0--0--0--0--0--|
--0--0--0--0--0--|

So there you have it, all 12 minutes and 30 seconds of perfection. There are a couple of 
bits I'm still worried about so let me know if you have any corrections, or if you can 
clarify some of the lyrics.

Enjoy!
Rachel
Tap to rate this tab
# A B C D E F G H I J K L M N O P Q R S T U V W X Y Z