Song name
# A B C D E F G H I J K L M N O P Q R S T U V W X Y Z

Laura Marling - Take The Night Off tab

Tuning: CGCGGe
Laura uses her thumb for the strumming. Hit every string but put emphasis on the low 
strings so that the A string (now a G) stands out.
There are only three parts to this song.

Part 1
This is played for the verses, although Part 2 is played at some points.
e|-0--0----0---0--|
G|-0--0----0---0--|
G|-0--0----0---0--|
C|-0--0----0---0--|
G|-0--0h2--/4--/2-|
C|-0--0----0---0--|

Part 2
Play this when she sings 'take the night off and be bad for me' and 'take it right off 
and be bad for me', but only after having played part 3 once.
e|-0--0----0---0--|
G|-0--0----0---0--|
G|-0--0----0---0--|
C|-0--0----0---0--|
G|-0--0h2--/4--/5-|
C|-0--0----0---0--|

Part 3
e|-0--0--0--0--0--0--0---0---0-----|
G|-0--0--0--0--0--0--0---0---0-----|
G|-0--2--4--5--7--9--10--12--14----|
C|-0--0--0--0--0--0--0---0---0-----|
G|-0--2--4--5--7--9--10--12--14----|
C|-0--0--0--0--0--0--0---0---0-----|

Also, the track ends with the start of 'I Was An Eagle' which is:

e|-0--0--0--0-|
G|-0--0--0--0-|
G|-0--5--0--5-|
C|-0--0--0--0-|
G|-0--0--0--0-|
C|-0--5--0--5-|
Tap to rate this tab
# A B C D E F G H I J K L M N O P Q R S T U V W X Y Z