Song name
# A B C D E F G H I J K L M N O P Q R S T U V W X Y Z

Laura Marling - You Know tab

-------------------------------------------------------------------------------
                             You Know - Laura Marling
-------------------------------------------------------------------------------
Tabbed by: Quentin Ames 

Watch the Video here: https://www.youtube.com/watch?v=0z_OfL_hm7E

Tuning: CGCGGE

This is the 3rd song of the first four song medley from the album 
Once I Was an Eagle 

The strumming throughout this song is a consistent up and down strum with 
her thumb. Counted 1 & 2 & 3 & 4 & 5 & 6 & (technically speaking!) 
If you just relax and feel it out it might be easier than trying to count 
it. I guess it just depends on what kind of person you are.




Riff 1
              v ^ v ^ v ^ v ^ v ^ v ^ v ^ v ^ v ^ v ^ v ^ v ^ 
              1 & 2 & 3 & 4 & 5 & 6 & 1 & 2 & 3 & 4 & 5 & 6 & 
e|------------0-0-0-0-0-0-0-0-0-0-0-0-0-0-0-0-0-0-0-0-0-0-0-0----------------|
B|------------5-5-5-5-5-5-5-5-5-5-5-5-4-4-4-4-4-4-4-4-4-4-4-4----------------|
G|------------5-5-5-5-5-5-5-5-5-5-5-5-4-4-4-4-4-4-4-4-4-4-4-4----------------|
D|------------0-0-0-0-0-0-0-0-0-0-0-0-0-0-0-0-0-0-0-0-0-0-0-0----------------|
A|------------0-0-0-0-0-0-0-0-0-0-0-0-0-0-0-0-0-0-0-0-0-0-0-0----------------|
E|------------0-0-0-0-0-0-0-0-0-0-0-0-0-0-0-0-0-0-0-0-0-0-0-0----------------|


              v ^ v ^ v ^ v ^ v ^ v ^ v ^ v ^ v ^ v ^ v ^ v ^ 
              1 & 2 & 3 & 4 & 5 & 6 & 1 & 2 & 3 & 4 & 5 & 6 & 
e|------------0-0-0-0-0-0-0-0-0-0-0-0-0-0-0-0-0-0-0-0-0-0-0-0----------------|
B|------------3-3-3-3-3-3-3-3-3-3-3-3-2-2-2-2-2-2-2-2-2-2-2-2----------------|
G|------------3-3-3-3-3-3-3-3-3-3-3-3-2-2-2-2-2-2-2-2-2-2-2-2----------------|
D|------------0-0-0-0-0-0-0-0-0-0-0-0-0-0-0-0-0-0-0-0-0-0-0-0----------------|
A|------------0-0-0-0-0-0-0-0-0-0-0-0-0-0-0-0-0-0-0-0-0-0-0-0----------------|
E|------------0-0-0-0-0-0-0-0-0-0-0-0-0-0-0-0-0-0-0-0-0-0-0-0----------------|


              v ^ v ^ v ^ v ^ v ^ v ^ v ^ v ^ v ^ v ^ v ^ v ^ 
              1 & 2 & 3 & 4 & 5 & 6 & 1 & 2 & 3 & 4 & 5 & 6 & 
e|------------0-0-0-0-0-0-0-0-0-0-0-0-0-0-0-0-0-0-0-0-0-0-0-0----------------|
B|------------0-0-0-0-0-0-0-0-0-0-0-0-0-0-0-0-0-0-0-0-0-0-0-0----------------|
G|------------0-0-0-0-0-0-0-0-0-0-0-0-0-0-0-0-0-0-0-0-0-0-0-0----------------|
D|------------0-0-0-0-0-0-0-0-0-0-0-0-0-0-0-0-0-0-0-0-0-0-0-0----------------|
A|------------5-5-5-5-5-5-4-4-4-4-4-4-2-2-2-2-2-2-0-0-0-0-0-0----------------|
E|------------0-0-0-0-0-0-0-0-0-0-0-0-0-0-0-0-0-0-4-4-4-2-2-0----------------|


              v ^ v ^ v ^ v ^ v ^ v ^ v ^ v ^ v ^ v ^ v ^ v ^ 
              1 & 2 & 3 & 4 & 5 & 6 & 1 & 2 & 3 & 4 & 5 & 6 & 
e|------------0-0-0-0-0-0-0-0-0-0-0-0-0-0-0-0-0-0-0-0-0-0-0-0----------------|
B|------------0-0-0-0-0-0-0-0-0-0-0-0-0-0-0-0-0-0-0-0-0-0-0-0----------------|
G|------------0-0-0-0-0-0-0-0-0-0-0-0-0-0-0-0-0-0-0-0-0-0-0-0----------------|
D|------------0-0-0-0-0-0-0-0-0-0-0-0-0-0-0-0-0-0-0-0-0-0-0-0----------------|
A|------------0-0-0-0-0-0-0-0-0-0-0-0-0-0-0-0-0-0-0-0-0-0-0-0----------------|
E|------------0-0-0-0-0-0-0-0-0-0-0-0-0-0-0-0-0-0-0-0-0-0-0-0----------------|

This is used for the intro and the verses



Riff 2
              v ^ v ^ v ^ v ^ v ^ v ^ v ^ v ^ v ^ v ^ v ^ v ^ 
              1 & 2 & 3 & 4 & 5 & 6 & 1 & 2 & 3 & 4 & 5 & 6 & 
e|------------7-7-7-7-7-7-7-7-7-7-7-7-8-8-8-8-8-8-8-8-8-8-8-8----------------|
B|------------7-7-7-7-7-7-7-7-7-7-7-7-9-9-9-9-9-9-9-9-9-9-9-9----------------|
G|------------0-0-0-0-0-0-0-0-0-0-0-0-0-0-0-0-0-0-0-0-0-0-0-0----------------|
D|------------0-0-0-0-0-0-0-0-0-0-0-0-0-0-0-0-0-0-0-0-0-0-0-0----------------|
A|------------0-0-0-0-0-0-0-0-0-0-0-0-0-0-0-0-0-0-0-0-0-0-0-0----------------|
E|------------0-0-0-0-0-0-0-0-0-0-0-0-0-0-0-0-0-0-0-0-0-0-0-0----------------|

This is used for the -- Give me a minute there -- 


Riff 3
              v ^ v ^ v ^ v ^ v ^ v ^ v ^ v ^ v ^ v ^ v ^ v ^ 
              1 & 2 & 3 & 4 & 5 & 6 & 1 & 2 & 3 & 4 & 5 & 6 & 
e|------------0-0-0-0-0-0-0-0-0-0-0-0-0-0-0-0-0-0-0-0-0-0-0-0----------------|
B|------------0-0-0-0-0-0-0-0-0-0-0-0-0-0-0-0-0-0-0-0-0-0-0-0----------------|
G|------------0-0-0-0-0-0-0-0-0-0-0-0-0-0-0-0-0-0-0-0-0-0-0-0----------------|
D|------------0-0-0-0-0-0-0-0-0-0-0-0-0-0-0-0-0-0-0-0-0-0-0-0----------------|
A|------------5-5-5-5-5-5-4-4-4-4-4-4-2-2-2-2-2-2-0-0-0-0-0-0----------------|
E|------------0-0-0-0-0-0-0-0-0-0-0-0-0-0-0-0-0-0-4-4-4-2-2-0----------------|


              v ^ v ^ v ^ v ^ v ^ v ^ v ^ v ^ v ^ v ^ v ^ v ^ 
              1 & 2 & 3 & 4 & 5 & 6 & 1 & 2 & 3 & 4 & 5 & 6 & 
e|------------0-0-0-0-0-0-0-0-0-0-0-0-0-0-0-0-0-0-0-0-0-0-0-0----------------|
B|------------0-0-0-0-0-0-0-0-0-0-0-0-0-0-0-0-0-0-0-0-0-0-0-0----------------|
G|------------0-0-0-0-0-0-0-0-0-0-0-0-0-0-0-0-0-0-0-0-0-0-0-0----------------|
D|------------0-0-0-0-0-0-0-0-0-0-0-0-0-0-0-0-0-0-0-0-0-0-0-0----------------|
A|------------0-0-0-0-0-0-0-0-0-0-0-0-0-0-0-0-0-0-0-0-0-0-0-0----------------|
E|------------0-0-0-0-0-0-0-0-0-0-0-0-0-0-0-0-0-0-0-0-0-0-0-0----------------|

This is used after the -- Give me a minute there -- and before the next verse 
It is a repeat of the last part in Riff 1. I'm repeating it for the clarity of 
The tabs.

Riff 1
Damn all those people 
Who don't lose control
Who will never take a foot out of life
You might not think that I care
But you don't know what I know

Riff 1
And damn all those hippies
Who stomp empty footed
Upon all what's good 
All what's pure of the world
You might not think that I care
But you don't know what I know

Riff 1
Bless all those mothers
Who do all they can
Just to take their faults from the line
I might not know what its like
But I'm glad that you know

Riff 2
Give me a minute there
Just a minute now

Riff 2
It'll come back to me

Riff 2
I was so sure but 
you freewheeling troubadour

Riff 2
You took my mind off the scene

Riff 3
And you know, I know, I know
I know that you know


Riff 1
You asked me blind once
If I was a child once
And I said I'm not really sure
How can you know
How can you know what it is
You don't know

Riff 1
We were a pair once
Of oh such despair oh
We were a child then I'm sure
But if we were a child then we are children
No more


Riff 2
Give me a minute there
Just a minute now

Riff 2
It'll come back to me

Riff 2
I was so sure but
You freewheeling troubadour

Riff 2
You took my mind off the scene


Riff 3 x2
And you know, and I know, and I know
I know that you know   x2
Tap to rate this tab
# A B C D E F G H I J K L M N O P Q R S T U V W X Y Z