Song name
# A B C D E F G H I J K L M N O P Q R S T U V W X Y Z

Laura Marling - Take The Night Off tab

-------------------------------------------------------------------------------
                             TAKE THE NIGHT OFF - Laura Marling
-------------------------------------------------------------------------------
Tabbed by: Quentin Ames 

Watch the Video here: https://www.youtube.com/watch?v=53YBszFm-Rc


Tuning: CGCGGE

 

The strumming throughout this song is a consistent up and down strum with 
her thumb. Counted 1 e & a 2 e & a 3 e & a 4 e & a (technically speaking!) 
If you just relax and feel it out it might be easier than trying to count 
it. I guess it just depends on what kind of person you are.

She does not always hit the 6th string or the low E string She uses it as an 
accent. If you listen, you can figure out where she is using it or just 
apply it where you think it should go. 





Riff 1
        v ^ v ^ v ^ v ^ v ^ v ^ v ^ v ^ v ^ v ^ v ^ v ^ v ^ v ^ v ^ v ^
        1 e & a 2 e & a 3 e & a 4 e & a 1 e & a 2 e & a 3 e & a 4 e & a
e|------0-0-0-0-0-0-0-0-0-0-0-0-0-0-0-0-0-0-0-0-0-0-0-0-0-0-0-0-0-0-0-0------|
B|------0-0-0-0-0-0-0-0-0-0-0-0-0-0-0-0-0-0-0-0-0-0-0-0-0-0-0-0-0-0-0-0------|
G|------0-0-0-0-0-0-0-0-0-0-0-0-0-0-0-0-0-0-0-0-0-0-0-0-0-0-0-0-0-0-0-0------|
D|------0-0-0-0-0-0-0-0-0-0-0-0-0-0-0-0-0-0-0-0-0-0-0-0-0-0-0-0-0-0-0-0------|
A|------0-0-0-0-0-0-h-2-2-2-2-2-2-2-2-2-/-4-4-4-4-4-2-2-2-2-2-2-2-2-2-2------|
E|------0-0-0-0-0-0-0-0-0-0-0-0-0-0-0-0-0-0-0-0-0-0-0-0-0-0-0-0-0-0-0-0------|

This is used for the intro and the verses




Riff 2
        v ^ v ^ v ^ v ^ v ^ v ^ v ^ v ^ v ^ v  ^ v  ^ v  ^ 
        1 & 2 & 3 & 4 & 1 & 2 & 3 & 4 & 1 & 2  & 3  & 4  &
e|------0-0-0-0-0-0-0-0-0-0-0-0-0-0-0-0-0-0-0--0-0--0-0--0-------|
B|------0-0-0-0-0-0-0-0-0-0-0-0-0-0-0-0-0-0-0--0-0--0-0--0-------|
G|------0-0-0-2-x-x-4-x-x-5-x-x-7-x-x-9-x-x-10-x-12-x-14-x-------|
D|------0-0-0-0-0-0-0-0-0-0-0-0-0-0-0-0-0-0-0--0-0--0-0--0-------|
A|------0-0-0-2-x-x-4-x-x-5-x-x-7-x-x-9-x-x-10-x-12-x-14-x-------|
E|------0-0-0-0-0-0-0-0-0-0-0-0-0-0-0-0-0-0-0--0-0--0-0--0-------|

This is after the chorus and is the bridge into the next verse 
and the outro. Not sure if 1, 2, 3, 4 is how you would count this. 
Feels a little more like twelves but you get the idea. Besides if you 
just relax and let you your body feel it, you will not need to count it. 




Riff 3
        v ^ v ^ v ^ v ^ v ^ v ^ v ^ v ^ v ^ v ^ v ^ v ^ v ^ v ^ v ^ v ^
        1 e & a 2 e & a 3 e & a 4 e & a 1 e & a 2 e & a 3 e & a 4 e & a
e|------0-0-0-0-0-0-0-0-0-0-0-0-0-0-0-0-0-0-0-0-0-0-0-0-0-0-0-0-0-0-0-0------|
B|------0-0-0-0-0-0-0-0-0-0-0-0-0-0-0-0-0-0-0-0-0-0-0-0-0-0-0-0-0-0-0-0------|
G|------0-0-0-0-0-0-0-0-0-0-0-0-0-0-0-0-0-0-0-0-0-0-0-0-0-0-0-0-0-0-0-0------|
D|------0-0-0-0-0-0-0-0-0-0-0-0-0-0-0-0-0-0-0-0-0-0-0-0-0-0-0-0-0-0-0-0------|
A|------0-0-0-0-0-0-h-2-2-2-2-2-2-2-2-2-/-4-4-4-4-4/5-5-5-5-5-5-5-5-5-5------|
E|------0-0-0-0-0-0-0-0-0-0-0-0-0-0-0-0-0-0-0-0-0-0-0-0-0-0-0-0-0-0-0-0------|

This is used in the second and third verses for take the night off. 


Verse 1

Riff 1
You should be gone beast

Riff 1
Be gone from me

Riff 1
Be gone from my mind at least

Riff 1
Let a little lady be

Riff 1
I don't want you to want me

Riff 1
Wouldn't want you to know

Riff 1
I don't care where you gone beast

Riff 1
I care you go

Riff 1
Take the night off

Riff 1
Be bad for me

Riff 1
Take it right off and

Riff 1
Be bad for me

Riff 2
Bridge


Verse 2

Riff 1
You're a night bird early riser

Riff 1
You have the kind of wing

Riff 1
To take her and surprise her

Riff 1
I didn't understand where you had gone

Riff 1
Didn't know you'd be right back

Riff 1
I didn't hear the night song

Riff 1
Calling for you into the black

Riff 3
Take the night off and

Riff 3
Be bad for me

Riff 2
Bridge

Verse 3

Riff 1
Didn't ask you to save me

Riff 1
Not when you knew me well

Riff 1
Wouldn't ask you even to behave
for me

Riff 1
I know there's no helping hell

Riff 3
Take the night off and

Riff 3
Be bad for me

Riff 3
Take it right off and

Riff 3
Be bad for me

Outro 
Riff 2

Then onto I Was an Eagle
************************************

| /   slide up
| \   slide down
| h   hammer-on
| p   pull-off
| ~   vibrato
| +   harmonic
| x   Mute note
| b   Bend
| pb  Pre-bend
| br  Bend release
| pbr Pre-bend release
| brb Bend release bend

************************************
Tap to rate this tab
# A B C D E F G H I J K L M N O P Q R S T U V W X Y Z